Coldplay Tabs

Violet Hill Solo

1 versions

TAB

            Preview Tab
Here Is The Tab For The Riff In The Middle Of The song.

---------------------|
-5-4---5-------------|
-----6-----4--6------|
---------6---6--4-6--|
---------------------|
---------------------|


---------------------|
-5-4---5-------------|
-----6-----4--6------|
---------6---6--4-6--|
---------------------|
---------------------|


---------------------|
-5-4---5-------------|
-----6-----4--6------|
---------6---6--4-6--|
---------------------|
---------------------|


---------------------|
-5-4---5-------------|
-----6-----4--6------|
---------6---6--4-6--|
---------------------|
---------------------|


---------------------|
-5-4---5-------------|
-----6-----4--6------|
---------6---6--4-6--|
---------------------|
---------------------|


-----------------4-3-2-1-|
-5-4---5---------4-3-2-1-|
-----6-----4-----5-4-3-2-|
---------6---6---6-5-4-3-|
-----------------6-5-4-3-|
-----------------4-3-2-1-|


---------------------|
-5-4---5-------------|
-----6-----4--6------|
---------6---6--4-6--|
---------------------|
---------------------|


---------------------|
-5-4---5-------------|
-----6-----4--6------|
---------6---6--4-6--|
---------------------|
---------------------|


---------------------|
-5-4---5-------------|
-----6-----4--6------|
---------6---6--4-6--|
---------------------|
---------------------|


---------------------|
-5-4---5-------------|
-----6-----4--6------|
---------6---6--4-6--|
---------------------|
---------------------|


---------------------|
-5-4---5-------------|
-----6-----4--6------|
---------6---6--4-6--|
---------------------|
---------------------|


-----------------4-3-2-1-|
-5-4---5---------4-3-2-1-|
-----6-----4-----5-4-3-2-|
---------6---6---6-5-4-3-|
-----------------6-5-4-3-|
-----------------4-3-2-1-|


Isnt A Hard Riff, But Its Very Cool.    

Added On December 16th, 2013

SHARE

Comments

blog comments powered by Disqus

ADVERTISEMENT