Comes With The Fall Tabs

Rockslide

1 versions

TAB

            Comes With the Fall - Rockslide

tune Drop D (D A D G B E)

RIFF (verse)

e-------------------------------|
b-------------------------------|
g-------------------------------|
d-------------------------------|
a-------------------------------|
D-6-0-6-6-6-6-0-6-6-6-6-0-3-5-0-|

change (chorus)

e----------------------------------------------------|
b----------------------------------------------------|
g----------------------------------------------------|
d------------------------------------3-3-5-----------|
a--------------------------------3-5-------3-3-5-----|
E-6-0-6-6-6-6-0-6-6-6-6-0-3-5-0----------------------|


e----------------------------------------------------|
b----------------------------------------------------|
g----------------------------------------------------|
d----------------------------------------------------|
a----------------------------------------------------|
D------------------------------------------------3-0-|

RIFF 2 (chorus)

e-----------------------------------|
b-----------------------------------|
g-----------------------------------|
d-----------------------------------|
a-3-3-3--3-5--------3-3-3--3-5------|
D-------------0-3---------------03--|

SOLO

e-----------13--------------10-10--10-11-10---------------------|
b-^5----^13----13h10-^13--------------------13-10---------------|
g--------------------------------------------------12-10-----10-|
d---------------------------------------------------------12----|
a---------------------------------------------------------------|
D---------------------------------------------------------------|

e-------------------------------------^13h10-^15^15^15----------|
b--------------------13-----------------------------------------|
g-^12-^12-^12--12h10----^12-12-12h10----------------------------|
d---------------------------------------------------------------|
a---------------------------------------------------------------|
D---------------------------------------------------------------|

e-17-17-^20--17-20-17----17-------------------------------------|
b---------------------20----20-18-20-18----18-------------------|
g---------------------------------------19----19-17-19-17----17-|
d---------------------------------------------------------19----|
a---------------------------------------------------------------|
D---------------------------------------------------------------|


e-----------------------------|
b-----------------------18-20-|
g-----------------17-19-------|
d-17-19-----17-19-------------|
a-------20--------------------|
D-----------------------------|



verse

Unleash your mind
Submit to lies
Unchain the wolves
And close your eyes

My heart is howling
Beyond its size
The rooster crows
And your master dies

chorus

Rockslide
Comin’ down
Hard ride
‘Til you hit the ground
Running

verse

My love is blind
To your disguise
The locusts swarm
Around your prize

chorus

Rockslide
Comin’ down
Hard ride
‘Til you hit the ground
Running

solo

Rockslide
Comin’ down
Hard ride
‘Til you hit the ground
Running    

Added On December 16th, 2013

SHARE

Comments

blog comments powered by Disqus

ADVERTISEMENT