Concrete Blonde Tabs

Cold Part Of Town

1 versions

TAB

            Cold Part Of Town Tab by Concrete Blonde


-----------------------------------------------------------------------------
			COLD PART OF TOWN - Concrete Blonde
-----------------------------------------------------------------------------

Tabbed by: Anne Drury
Email: zerofret_ad@hotmail.com
Date: April 26, 2005
(This tab is the transcriber's own work.)


Written by:  J. Napolitano
Album:  "Concrete Blonde"     (1986, I.R.S. Records)
Tuning: Standard

The small bits of lyrics correspond to the tab located below them.
Bar lines indicate measures of 4/4 time.


1st Verse:


...darling...
...change in...
   (C)                                 (D)
 E -----------------|-----------------|-----------------|-----------------|
 B -----------------|-----------------|-----------------|-----------------|
 G -----------------|-----------------|-----------------|-----------------|
 D -----0-----0-----|-----0-----0-----|-----0-----0-----|-----0-----0-----|
 A ---3-----3-----3-|---3-----3-----3-|---3-----3-----3-|---3-----3-----3-|
 E -3-----3-----3---|-3-----3-----3---|-2-----2-----2---|-2-----2-----2---|

Repeat first four measures

...alright...
   (F)                                 (C)
 E -----------------|-----------------|-----------------|-----------------|
 B -----------------|-----------------|-----------------|-----------------|
 G -----------------|-----------------|-----------------|---------0-------|
 D -----0-----0-----|-----0-----0-----|-----0-----0-----|-----0-----0-----|
 A ---3-----3-----3-|---3-----3-----3-|---3-----3-----3-|---3---3---------|
 E -1-----1-----1---|-1-----1-----1---|-0-----0-----0---|-0-----------3---|

...chilly over here...
   (D)                                 (F)
 E -----------------|-----------------|-----------------|----------------|
 B -----------------|-----------------|-----------------|----------------|
 G -----------------|-----------------|-----------------|---------0------|
 D -----0-----0-----|-----0-----0-----|-----0-----0-----|-----0----------|
 A ---3-----3-----3-|---3-----3-----3-|---3-----3-----3-|---3---3--------|
 E -2-----2-----2---|-2-----2-----2---|-1-----1-----1---|-1--------------|

2nd Verse:
(same as Verse 1, with some slight differences)

...darling...
...luck went...
   (C)                                 (D)
 E -----------------|-----------------|-----------------|-----------------|
 B -----------------|-----------------|-----------------|-----------------|
 G -----------------|-----------------|-----------------|-----------------|
 D -----0-----0-----|-----0-----0-----|-----0-----0-----|-----0-----0-----|
 A ---3-----3-----3-|---3-----3-----3-|---3-----3-----3-|---3-----3-----3-|
 E -3-----3-----3---|-3-----3-----3---|-2-----2-----2---|-2-----2-----2---|

Repeat first four measures


...alright...
   (F)                                 (C)
 E -----------------|-----------------|-----------------|-----------------|
 B -----------------|-----------------|-----------------|-----------------|
 G -----------------|-----------------|---------------0-|-----------------|
 D -----0-----0-----|-----0-----0-----|-----0-----0-----|---0---0---------|
 A ---3-----3-----3-|---3-----3-----3-|---3-----3---3---|-----3-----3-----|
 E -1-----1-----1---|-1-----1-----1---|-0-----0---------|-------------3---|

...chilly over here...
   (D)                                 (F)
 E -----------------|-----------------|-----------------|-----------------|
 B -----------------|-----------------|-----------------|-----------------|
 G -----------------|-----------------|-----------------|---------0-------|
 D -----0-----0-----|-----0-----0-----|-----0-----0-----|-----0-----0---0-|
 A ---3-----3-----3-|---3-----3-----3-|---3-----3-----3-|---3---3-----3---|
 E -2-----2-----2---|-2-----2-----2---|-1-----1-----1---|-1---------------|

Chorus:

Cold part...
   (C)                                 (D)
 E -----------------|-----------------|-----------------|-----------------|
 B -5---------------|---------8-------|-7-------7-------|--------10-------|
 G -5-----7-5-------|---5-7-5-5-5-7-5-|-7-----7-7-------|---------7-7-9-7-|
 D -5-----5-5-------|---5-5-5-5-5-5-5-|-7-----7-7-------|---------7-7-7-7-|
 A -----------------|-----------------|-----------------|-----------------|
 E -----------------|-----------------|-----------------|-----------------|

Play this line 2 times

Chords for guitar part between Chorus and third verse:

F        C        D        F

3rd Verse:
(same as second verse)

I'll go...
It's raining...
Can I...
'Cause it... (this line repeats two more times)


Chorus


(fade)    

Added On December 4th, 2013

SHARE

Comments

blog comments powered by Disqus

ADVERTISEMENT