Corb Lund Band Tabs

The Horse I Rode In On

1 versions

TAB

            The Horse I Rode In On
Corb Lund
Album: Horse Soldier! Horse Soldier!

Remember this tab is relative to the capo
On the intro you can do the sliding or hammer-ons/pull-offs that you like, I just 
straight pick every note

Capo 4


Intro:                              (Just play G til beginning of verse)
E----------------------------------------------3------------------------|
B----------------------------------------------0------------------------|
G----------------------------------------------0------------------------|
D--------------0--2--0-------------------------0------------------------|
A-------0--2------------2--0--2-3--2--0--------2------------------------|
E----3-----------------------------------3-----3------------------------|


    G
G
e |---|---|-x-|---|---|
B |---|---|---|---|---|
G |---|---|---|---|---|
D |---|---|---|---|---|
A |---|-x-|---|---|---|
E |---|---|-x-|---|---|
C
C
e |---|---|---|---|---|
B |-x-|---|---|---|---|
G |---|---|---|---|---|
D |---|-x-|---|---|---|
A |---|---|-x-|---|---|
E |---|---|---|---|---|
G
G
e |---|---|-x-|---|---|
B |---|---|---|---|---|
G |---|---|---|---|---|
D |---|---|---|---|---|
A |---|-x-|---|---|---|
E |---|---|-x-|---|---|
The show was a big one, an old rodeo C
C
e |---|---|---|---|---|
B |-x-|---|---|---|---|
G |---|---|---|---|---|
D |---|-x-|---|---|---|
A |---|---|-x-|---|---|
E |---|---|---|---|---|
D
D
e |---|-x-|---|---|---|
B |---|---|-x-|---|---|
G |---|-x-|---|---|---|
D |---|---|---|---|---|
A |---|---|---|---|---|
E |---|---|---|---|---|
They'd been trying to hire us for a few years or so C
C
e |---|---|---|---|---|
B |-x-|---|---|---|---|
G |---|---|---|---|---|
D |---|-x-|---|---|---|
A |---|---|-x-|---|---|
E |---|---|---|---|---|
G
G
e |---|---|-x-|---|---|
B |---|---|---|---|---|
G |---|---|---|---|---|
D |---|---|---|---|---|
A |---|-x-|---|---|---|
E |---|---|-x-|---|---|
The grandstand was bursting, the infield was full D
D
e |---|-x-|---|---|---|
B |---|---|-x-|---|---|
G |---|-x-|---|---|---|
D |---|---|---|---|---|
A |---|---|---|---|---|
E |---|---|---|---|---|
G
G
e |---|---|-x-|---|---|
B |---|---|---|---|---|
G |---|---|---|---|---|
D |---|---|---|---|---|
A |---|-x-|---|---|---|
E |---|---|-x-|---|---|
They'd run all the chucks and they'd bucked all the bulls I felt stiff in the saddle, had been a year since I'd rode And I'd never been on him save an afternoon lope But this was the last thing on my tortured mind As I put heels to belly and my band played the time Chorus: D
D
e |---|-x-|---|---|---|
B |---|---|-x-|---|---|
G |---|-x-|---|---|---|
D |---|---|---|---|---|
A |---|---|---|---|---|
E |---|---|---|---|---|
C
C
e |---|---|---|---|---|
B |-x-|---|---|---|---|
G |---|---|---|---|---|
D |---|-x-|---|---|---|
A |---|---|-x-|---|---|
E |---|---|---|---|---|
G
G
e |---|---|-x-|---|---|
B |---|---|---|---|---|
G |---|---|---|---|---|
D |---|---|---|---|---|
A |---|-x-|---|---|---|
E |---|---|-x-|---|---|
He was a big sorrel gelding with a golden streaked mane D
D
e |---|-x-|---|---|---|
B |---|---|-x-|---|---|
G |---|-x-|---|---|---|
D |---|---|---|---|---|
A |---|---|---|---|---|
E |---|---|---|---|---|
C
C
e |---|---|---|---|---|
B |-x-|---|---|---|---|
G |---|---|---|---|---|
D |---|-x-|---|---|---|
A |---|---|-x-|---|---|
E |---|---|---|---|---|
G
G
e |---|---|-x-|---|---|
B |---|---|---|---|---|
G |---|---|---|---|---|
D |---|---|---|---|---|
A |---|-x-|---|---|---|
E |---|---|-x-|---|---|
A silver mounted saddle and hand braided reins G
G
e |---|---|-x-|---|---|
B |---|---|---|---|---|
G |---|---|---|---|---|
D |---|---|---|---|---|
A |---|-x-|---|---|---|
E |---|---|-x-|---|---|
C
C
e |---|---|---|---|---|
B |-x-|---|---|---|---|
G |---|---|---|---|---|
D |---|-x-|---|---|---|
A |---|---|-x-|---|---|
E |---|---|---|---|---|
G
G
e |---|---|-x-|---|---|
B |---|---|---|---|---|
G |---|---|---|---|---|
D |---|---|---|---|---|
A |---|-x-|---|---|---|
E |---|---|-x-|---|---|
He had one blue eye that was clear like the rain D
D
e |---|-x-|---|---|---|
B |---|---|-x-|---|---|
G |---|-x-|---|---|---|
D |---|---|---|---|---|
A |---|---|---|---|---|
E |---|---|---|---|---|
G
G
e |---|---|-x-|---|---|
B |---|---|---|---|---|
G |---|---|---|---|---|
D |---|---|---|---|---|
A |---|-x-|---|---|---|
E |---|---|-x-|---|---|
But the horse I rode in on felt none of my pain (Intro) Well we made quite an entrance in show business style And ten thousand people all witnessed my smile But you were not there among them I'm sorry to say As I rode through the crowd toward the big outdoor stage If my pony was skittish with all the people around And if he spooked just a little when the spotlight shone down It's nothing compared to the heart break and pain That come with a love that has withered in vain Chorus (Intro) So we played through the show and like I always do I sang every one of the love songs for you Then I climbed right back on him and I spurred him away And as the cheers and the dust from the arena did fade I didn’t feel like no cowboy anymore, anyway Chorus (Intro) Please Rate and enjoy

Added On December 16th, 2013

SHARE

Comments

blog comments powered by Disqus

ADVERTISEMENT