Countess Tabs

The Priest Must Die

1 versions

TAB

            The Priest Must Die Tab by Countess


THE PRIEST MUST DIE

As performed by COUNTESS on the album "Ad Maiorem Sathanae Gloriam".
Words and music by Orlok.

Normal tuning.

x = palm mute

Fig. 1
E|---------------------------------|
B|---------------------------------|
G|---------------------------------|
D|-4-4-5-5-4-4-5-5-7-7-8-8-7-7-8-8-|
A|-4-4-5-5-4-4-5-5-7-7-8-8-7-7-8-8-|
E|-2-2-3-3-2-2-3-3-5-5-6-6-5-5-6-6-|

Fig. 2
E|-----------|
B|-----------|
G|-----------|
D|-4-4-2-----|
A|-4-4-2-----|
E|-2-2-0-----|
   x x 

Fig. 3
E|-------|
B|-------|
G|-------|
D|-2-----|
A|-2-----|
E|-0-----|

Fig. 4
E|-----------------------|
B|-----------------------|
G|-----------------------|
D|-7----8-----5----4-----|
A|-7----8-----5----4-----|
E|-5----6-----3----2-----|


SONG STRUCTURE

Fig 1 x 4
Fig 1 x 2
Fig 1 x 4		w/verse 1
Fig 1 x 2
Fig 1 x 4		w/verse 2
Fig 2 x 8
Fig 3 x 8
Fig 1 x 1
Fig 1 x 4		w/guitar lead
Fig 4 x 4		w/guitar lead
Fig 1 x 2
Fig 1 x 4		w/verse 1
Fig 1 x 2    

Added On December 4th, 2013

SHARE

Comments

blog comments powered by Disqus

ADVERTISEMENT