Cracker Tabs

Low

3 versions

TAB

            Low Tab by Cracker


-------------------------------------------------------

Riff 1
|---------------------xx--------------------------|
|---------------------xx---------------8br8br-----|
|-7h9-9-9--7-9-9-9-9--xx--7h9-9-9--7-9--------9p7-|
|---------------------xx--------------------------|
|---------------------xx--------------------------|
|---------------------xx--------------------------|

Riff 2
|-----------|
|-8-10b(12)-| gradually bend to 1 whole step
|-----------|
|-----------|
|-----------|
|-----------|


Chords
(use the fifths when playing an electric and the regular chords when playing an
acoustic, it will sound better)

  D5    C5    E5    G5             D     C     E     G
|-----|-----|-----|-----|       |--2--|--0--|-----|--3--|
|-----|-----|-----|-----|       |--3--|--1--|-----|--3--|
|--7--|--5--|-----|-----|  or   |--2--|--0--|--1--|--0--|
|--7--|--5--|--2--|--5--|       |--0--|--2--|--2--|--0--|
|--5--|--3--|--2--|--5--|       |-----|--3--|--2--|--2--|
|-----|-----|--0--|--3--|       |-----|-----|--0--|--3--|


x = muted string
b = bend
r = release bend    

Added On December 4th, 2013

SHARE

Comments

blog comments powered by Disqus

VERSIONS

ADVERTISEMENT