Cradle Of Filth Tabs

Temptation

3 versions

TAB

            Cradle Of Filth-Temptation
Played In Drop D
I Know Its Not Perfect,but this is my interpretation of it.I know i didnt get the chorus 
because there was a variation in the riff i couldnt figure out, but i hope it helps anyways.

|-----------------------|
|-----------------------|
|-----------------------|
|-----------X2----------|
|-8--11--13-----11--9\\-|
|-8--11--13-----11--9\\-|

|-------------------------------|
|-------------------------------|
|-------------------------------|
|--6-5--3--1-3------3h1----3h1--|
|--6-5--3--1-3------3h1----3h1--|
|--6-5--3--1-3-0000-3h1-00-3h1--|

|---------------------------------|
|---------------------------------|
|---------------------------------|
|-8--4--8--4-xxx--8--4--8--4--3\\-|
|-8--4--8--4-xxx--8--4--8--4--3\\-|
|-8--4--8--4-xxx--8--4--8--4--3\\-|

 Bass Only

|--------------|
|--------------|
|--------------|
|-----------X2-|
|-8--11--13----|
|-8--11--13----|

|-------------------------------|
|-------------------------------|
|-------------------------------|
|--6-5--3--1-3------3h1----3h1--|
|--6-5--3--1-3------3h1----3h1--|
|--6-5--3--1-3-0000-3h1-00-3h1--|

|--------------------------------------------------------------------------|Do the Riff
|--------------------------------------------------------------------------|In Bars X3
|-----these are elevens-strum eight-times----------------|-------------|X3-|
|-8--4--11--8--6--4h6--4-1111111111111111--8--4--3--8--6--4//1111--6-6-----|
|-8--4--11--8--6--4h6--4-1111111111111111--8--4--3--8--6--4//1111--6-6-----|
|-8--4--11--8--6--4h6--4-1111111111111111--8--4--3--8--6--4//1111--6-6-----|

|-------------------------------|
|-------------------------------|
|-------------------------------|
|--6-5--3--1-3------3h1----3h1--|
|--6-5--3--1-3------3h1----3h1--|Do this Till the End With Some Variation
|--6-5--3--1-3-0000-3h1-00-3h1--|


Questions/Comments:
b_coovert@yahoo.com    

Added On December 16th, 2013

SHARE

Comments

blog comments powered by Disqus

VERSIONS

ADVERTISEMENT