Cream Tabs

Strange Brew

10 versions

TAB

            Strange Brew Tab by Cream


Cream - Strange Brew

p=pull off
/=slide 

here's the rhythm
     A11th              Amaj            Amin 
e----5------------------5---------------5-----------------
B----5------------------5---------------5-----------------
G----6------------------6---------------5-----------------
D----5-------5-5h7------7------5--5h7---7-----------------
A----7---5h7------------7--5h7----------7-----------------
E-5--5--------------5---5---------------5-----------------
  this just keeps repeating the whole song

here's the lead

e--8p5--------------------------------------------------
B------8--5---------------------------------------------
G------------5--7p5---------5---------------------------
D------------------------5-----7------------------------
A--------------------5/7--------------------------------
E-------------------------------------------------------
sorry i messed up on the first tab but this one is right    

Added On December 4th, 2013

SHARE

Comments

blog comments powered by Disqus