Crosby Stills Nash And Young Tabs

Find The Cost Of Freedom

3 versions

TAB

            Find The Cost Of Freedom Tab by Crosby Stills Nash And Young


Band: CSN
Album: So Far
Song: Find the Cost of Freedom

The verses are a little bit sketchy, but the intro's just about perfect.

Drop C tuning
C
a
d
g
b
e

Intro:

e--------------------------------------------------------------|
B----3--3-1-1--------------------------------------------------|
G----5--5-3-3-----3-----3----3-3-3---333---5-555---5-5-5---5-5-|
D-------------3/5-5-3-3-5--1-5-5-5-0-555---5-555---5-5-5---5-5-|
A----------------------------------------3-------3-------3-3-3-|
C--------------------------------------------------------------|

e---------------------------------------------------------------|
B---------------------------------------------------------------|
G----5-555---5-5---555-----3-----3-3-333-----33333---33---------|
D----5-555---5---5-555-5-5-5-3/5-5-5-555-3-1-55555---55---------|
A--3---------3-------------------------------------5----5p3-1-3-|
C-------------------------------------------------------------0-|

e--------------------------------------------------------------|
B--------------------------3b-3h4-3h4-4-3p1-1-----------3b-3-4-|
G------------------------5--------------------3-----3-5--------|
D--------------------3/5------------------------3-5------------|
A--3---3---3---3-----------------------------------------------|
C----0---0---0---0---------------------------------------------|

e-----------------------------------------------1/3-3-1--------|
B--4/6-4-3-1----------------------------3-4-4/6---------4-6-6b-|
G------------3-0-3/5b---3-0---------3/5------------------------|
D---------------------------3---3/5----------------------------|
A-----------------------------3--------------------------------|
C-----------------------------0--------------------------------|

e--1/3-1---------------------------------------------1-1/3-1---|
B--------4-3-1------------------------4b-1---6-4-6-4---------4-|
G--------------3-0----------------3h5--------------------------|
D------------------3-1--------3-5------------------------------|
A----------------------3--3-6----------------------------------|
C--------------------------------------------------------------|

e--------------------------------------------------------------|
B--6-6b-4/6/4-------------------------------------------4b-1---|
G-------------5b-3-5-5-------0-3b----0-0-3b---------3h5------3-|
D------------------------3-3-------3--------3-3h4h5------------|
A--------------------------------------------------------------|
C--------------------------------------------------------------|

e-----------|
B--1--------|
G-----------|
D----5-3----|
A--------6b-|
C-----------|

Verses:

     C          Bb         C/G?        Ebm
e---------------------------------------------|
B--1-----1------------------------------------|
G--0-0-----0--3-----3----0-----0----0-----0---|
D-------------0-0--------1-1--------1-1-------|
A--3---3------1---1---1--3---3---3--1---1---1-|
C---------------------------------------------|
 Find   the   cost   of    free       dom

    C/E?          Bb         C
e-----------------------------------------------|
B------------------------1-----1----------------|
G-------------3-----3----0-0--------------------|
D--6-----6-----0-0------------------------------|
A--6-6--------1---1---1-------------------------|
C--8---8---8-------------0---0---0--------------|
 Buried         in the       ground

Mother earth will swallow you
Lay your body down
(2x, second acapella)

Enjoy!
RIP to all the greats    

Added On December 4th, 2013

SHARE

Comments

blog comments powered by Disqus

VERSIONS

ADVERTISEMENT