Cross Canadian Ragweed Tabs

Livin Life By The Drop

2 versions

TAB

            Livin Life By The Drop Tab by Cross Canadian Ragweed


This ain’t right on I’m sure, but I’m 14 and this is my first time to post somethin’ on 
Cut me some slack. My e-mail is c_meerun19@hotmail.com. Enjoy.

Intro

|-----------------------------------------------------------|
|-----------------------------------------------------------|
|----------------0-------------0h2-0------------------------|
|-------0--1-1h2---2--0h1-0----------2----------------------|
|-0 0h3---------------------3-----------0h2-0---------------|
|---------------------------------------------2-------------|

|-----------------------------------------------------------|
|-----------------------------------------------------------|
|--0h2-0----------------------------------------------------|
|--------2--0h2-0-------------------------------------------|
|-----------------2-----------------------------------------|
|-----------------------------------------------------------|

A riff                      E riff

|-----------------------------------------------------------|
|-----------------------------------------------------------|
|-----------------------------------------------------------|
|--2-2-4-4-2-2-----0----------------------------------------|
|--0-0-0-0-0-0-0h3-----------2-2-4-4-2-2-----0--------------|
|----------------------------0-0-0-0-0-0-0h3----------------|

F riff                      D riff

|-----------------------------------------------------------|
|-----------------------------------------------------------|
|---------------------------2-2-4-4-2-2-----0---------------|
|---------------------------0-0-0-0-0-0-0h3-----------------|
|--4-4-6-6-4-4-----2----------------------------------------|
|--2-2-2-2-2-2-2h5------------------------------------------|

A                  E
Hello there, my old friend
F                                   D
Not so long ago it was 'till the end
A                          E
We stood outside in the pouring rain
F                                          D
On the way up the road we started all over again

Chorus:
   F                D        E       (x2)
|-----------------------------------------------------------|
|-----------------------------------------------------------|
|-------------------2-2-4-4---------------------------------|
|-------------------0-0-0-0---------------------------------|
|--4-4-6-6-4-4-6-6-----------2-2-4-4------------------------|
|--2-2-2-2-2-2-2-2-----------0-0-0-0------------------------|

Then
  F         D       E         regular A riff
|-----------------------------------------------------------|
|-----------------------------------------------------------|
|-----------2-2-4-4-----------------------------------------|
|-----------0-0-0-0-----------2-2-4-4-2-2-----0-------------|
|--4-4-6-6-----------2-2-4-4--0-0-0-0-0-0-0h3---------------|
|--2-2-2-2-----------0-0-0-0--------------------------------|

F                D                  E
Livin our dream And Lord You're on top
F                 D                      E
My mind was aching And Lord it won't stop
F              D              E            A
That's how it happened livin life by the drop

A                             E
Up and down that road in our worn out shoes
F                              D
Talking bout good things and singing the blues
A                   E
You went your way, I stayed behind
F                           D
We both knew it was just a matter of time

Chorus
(instrumental)

A                                  E
No wasted time, we're alive today
F                                          D
Trying another path, there ain't no easy way
A                                         E
Time's come between us, a means to an end
 F                                              D
God it's good to be here walking together my friend

Chorus

 F                   D                      E                A
That's how it happened livin life by the drop (x2)    

Added On December 4th, 2013

SHARE

Comments

blog comments powered by Disqus

VERSIONS

ADVERTISEMENT