Crossfade Tabs

Breathing Slowly

2 versions

TAB

            Breathing Slowly Tab by Crossfade


Crossfade
"Breathing Slowly"
Falling Away
2006

Tabbed by: Mattedee
Tuning: Drop Db (Drop D and 1/2 step down)

This one is as close to 100% as you could get it, unless you figured out the harmonics 
the beginning (I didn't do em).

Find out your own structure--these are the basics

Intro
eb|---------------------------------------------------------------------|
Bb|---------------------------------------------------------------------|
Gb|---------------------------------------------------------------------|  X2
db|-4444444444444444-7777777777777777-2222222222222222------------------|
Ab|-2222222222222222-5555555555555555-0000000000000000-2222222222222222-|
Db|----------------------------------------------------2222222222222222-|
   p.m..................................................................

Verse
eb|-----------------------------------------------------------------------|
Bb|-----------------------------------------------------------------------|
Gb|-----------------------999-------------444-----------------------------|X2
db|----4445554442244---777---777--77---222---222--22---444555444/5h7p5\4~-|
Ab|-222-------------555---------55--000---------00------------------------|
Db|-------------------------------------------------222-------------------|
   p.m..........................................................

Pre-Chorus
eb|----------------------------------------------------------------------|
Bb|----------------------------------------------------------------------|
Gb|-----------------------999-------------444----------------------------|
db|----4445554442244---777---777--77---222---222--22---777---777---------|
Ab|-222-------------555---------55--000---------00--555---777---////-----|
Db|-------------------------------------------------555---777---////-----|
   p.m..........................................................

Chorus
eb|-----------------------------------------------------|
Bb|-----------------------------------------------------|
Gb|-----------------------------------------------------| X3
db|-0-0-0077-77\9-9-99/5-5-55---------------------------|
Ab|-0-0-0077-77\9-9-99/5-5-55---------------------------|
Db|-0-0-0077-77\9-9-99/5-5-55---------------------------|

eb|-----------------------------------------------------|
Bb|-----------------------------------------------------|
Gb|-----------------------------------------------------|
db|-7-7-9-77-7-77-5~------------------------------------|
Ab|-7-7-7-77-7-77-5~------------------------------------|
Db|-7-7-7-77-7-77-5~------------------------------------|

Bridge, play straight from 2nd chorus.
eb|-----------------------------------------------------|
Bb|-----------------------------------------------------|
Gb|-----------------------------------------------------|
db|-7-7-9-77-7-77-5-5-5-55-5-55-------------------------|
Ab|-7-7-7-77-7-77-5-5-5-55-5-55-------------------------|
Db|-7-7-7-77-7-77-5-5-5-55-5-55-------------------------|

Outro - There is another harmonic bit before the following, but palm mute the verse clean 
and it still sounds cool.

eb|---------------------------------------------------------------------|
Bb|---------------------------------------------------------------------|
Gb|---------------------------------------------------------------------|
db|-4444444444444444-7777777777777777-2222222222222222------------------|
Ab|-2222222222222222-5555555555555555-0000000000000000-2222222222222222-|
Db|----------------------------------------------------2222222222222222-|
   p.m..................................................................

eb|-------------------------------------------------------------------------|
Bb|-------------------------------------------------------------------------|
Gb|-----------------------------------------444-----------------------------|
db|-4444444444444444-7777777777777777----222---222--22---444555444/5h7p5\4~-|
Ab|-2222222222222222-5555555555555555-000---------00------------------------|
Db|---------------------------------------------------222-------------------|
   p.m............................................................

eb|-----------------------------------------------------|
Bb|-----------------------------------------------------|
Gb|-----------------------999---------------------------|
db|----4445554442244---777---777\5h7p5\4~---------------|
Ab|-222-------------555---------------------------------|
Db|-----------------------------------------------------|
   p.m..........................    

Added On December 4th, 2013

SHARE

Comments

blog comments powered by Disqus

VERSIONS

ADVERTISEMENT