Cure Tabs

Seventeen Seconds

2 versions

TAB

            -------------------------------------------------------------------------------
			     Seventeen Seconds - The Cure
-------------------------------------------------------------------------------
Tabbed by: Gallagher2006

Tuning: Standard

This song only has one guitar sequence all the way through it.

A simple Am to and Fmaj7

e|-----------------------------------|
B|-1-------1-1--1--1--0---0--0--0----|
G|-2--2--2-0-2--2--2--2-2-2--2--2--2-|
D|-2--2--2-0-2--2--2--3-3-3--3--3--3-|
A|-0--0--0-0-0--0--0--3-3----3--3--3-|
E|--------------------1------------1-|

Here’s the bass riff on the intro arranged for guitar...

e|----------------------|
B|----------------------|
G|----------------------|
D|-2-0-2------2-0-2-----|
A|--------2~~--------2~~|
E|----------------------|

Pretty much all there is to it..=]    

Added On December 16th, 2013

SHARE

Comments

blog comments powered by Disqus

VERSIONS

ADVERTISEMENT