Danko Jones Tabs

Lovercall

3 versions

TAB

            Lover Call Tab by Danko Jones


Tabbed by: Brandon Bordignon
Tuning: Standard

Bass riff 
G|----2-0-------------------2-0--------------| 
D|---------0----------------------0----------| 
A|-0---------0------0-0--0---------0-------0-| 
E|--------------1-3--------------------1-3---| 

Interlude 
e|---------------------------------------------|
B|---------------------------------------------|
G|---------------------------------------------|
D|--6-6-6-6—6—6-6-6-6-----6-6-6-6—6—6-6--------|
A|--6-6-6-6—6—6-6-6-6-----6-6-6-6—6—6-6--------|
E|--4-4-4-4—4—4-4-4-4-----4-4-4-4—4—4-4--------|

Chorus 1
e|---------------------------------------------------------------|
B|---------------------------------------------------------------|
G|---------------------------------------------------------------|
D|--9-9-9-9------4-------6-6----------------------------------|
A|--9-9-9-9------4-------6-6----------------------------------|
E|--7-7-7-7------2-------4-4----------------------------------|

Chorus 2 (lead) 
e|------------12--------13-12-----------15-13-12-------------13-12-------------------------------| 
B|-----13--------13-------------13-------------------13----------------13------------------------| 
G|-14-----14--------14-------------14--------------------14--------------------------------------| 
D|-----------------------------------------------------------------------------------------------| 
A|-------------------------------------------------------------------------------14-15-15-15--12~| 
E|-----------------------------------------------------------------------------------------------|


/  slide up
| \  slide down
| h  hammer-on
| p  pull-off
| ~  vibrato
| +  harmonic
| x  Mute noteLovercall Tab by Danko Jones


This tab is in standard tuning (ebgdae)

Legend
~=vibrato (very quick string bends)


Bass riff
G|---2-0----------------2-0-----------|
D|-------0------------------0---------|
A|-0-------0-----0-0--0-------0-----0-|
E|-----------1-3----------------1-3---|

Interlude
e|--------------------------------------|
B|--------------------------------------|
G|--------------------------------------|
D|-7-7-7-7--7--7-7-7-7--7-7-7-7--7--7-7-|
A|-7-7-7-7--7--7-7-7-7--7-7-7-7--7--7-7-|
E|-5-5-5-5--5--5-5-5-5--5-5-5-5--5--5-5-|

Chorus 1
e|----------------------------------------------|
B|----------------------------------------------|
G|----------------------------------------------|
D|-10-10-10-10--5--7-7-7-7--10-10-10-10--5--7-7-|
A|-10-10-10-10--5--7-7-7-7--10-10-10-10--5--7-7-|
E|--8--8--8--8--3--5-5-5-5---8--8--8--8--3--5-5-|

Chorus 2 (the Neato sounding part)
e|----------12-------13-12--------15-13-12-------13-12---------------------|
B|----13-------13----------13--------------13----------13------------------|
G|-14----14-------14----------14--------------14---------------------------|
D|-------------------------------------------------------------------------|
A|---------------------------------------------------------14-15-15-15--12~|
E|-------------------------------------------------------------------------|

Song Layout
Bass riff x3
interlude x2
Bass riff x4
Chorus 1 x2
Chorus 2 x2
Bass riff x4
Chorus 1 x2
Chorus 2 x4    

Added On December 4th, 2013

SHARE

Comments

blog comments powered by Disqus

VERSIONS

ADVERTISEMENT