Datsuns Tabs

So Long

1 versions

TAB

            Artist: The Datsuns
Song: So Long
Album: Headstunts (2008)
Guitarists: Christian Datsun & Phil Datsun

This is the latest single from the kiwi rockers.
The video can be found here http://www.youtube.com/v/aG6W485Y4Kk&hl=en&fs=1

Tune guitar to Eb tuning to match original recorded key

Main Riff/ Verses

e|----------------------------------------------------------|
b|------------------------------------------------3--------*|
g|--2^-2^-2^-2^-0---0-0--2------2^-2^-2^-2^-0---0-2--2------|
d|----------------2---0--2--------------------2---0--2-----*|
a|--------------------2--0---2-----------------------0----2-|
e|--------------------3----3-0--------------------------3-0-|


Chorus

"oh, you can take it, only so long..."

e|----------------------------------------------------|
b|----------------------------------------------------|
g|----------------------------------------------------|
d|----------------------------------------------------|
a|--3-3-3-3-3-2-0------------5-5-5-5-5-3-2-0----------|
e|----------------3-3-3-3-3------------------5-5-5-5-5|


e|-----------------------------------------|
b|-----------------------------------------|
g|-----------------------------------------|
d|---------------------------7-7-7-7-7-7-7-|
a|--3-3-3-3-3-2-0------------7-7-7-7-7-7-7-|
e|----------------3-3-3-3-3--5-5-5-5-5-5-5-|


Thats all there is to it, buy the single from iTunes for only 0.79p!
Check out the forum on www.thedatsuns.com!    

Added On December 16th, 2013

SHARE

Comments

blog comments powered by Disqus

ADVERTISEMENT