Dave Matthews Band Tabs

Beach Ball

1 versions

TAB

            Beach Ball
Artist: Dave Matthews Band
Album: Little Red Bird EP

Raised B tuning (or capo 7 on standard tuned guitar)
All chords relative to capo

Verse
e|---0----0----0----0---|
B|---0----3----1----0---|
G|---0----0----0----0---|
D|---2----4----2----2---|
A|---2----5----3----2---|
E|---0--------------0---|

Pre-Chorus part 1 ("Hello moon")
e|---0-------3---|
B|---0-------3---|
G|---0-------0---|
D|---2-------0---|
A|---2-------2---|
E|---0---2---3---|

Pre-Chorus part 2 (“Ring The Bell”)
e|---0-----3-----0-----0---|
B|---0-----0-----1-----1---|
G|---0-----0-----2-----0---|
D|---2-----0-----2-----2---|
A|---2-----2-----0--2--3---|
E|---0--2--3---------------|

Chorus
e|--------------------------------------------|
B|----3----3----3--3----3--3----3---3----3----|
G|----2----2----0--0----0--0----0---0----0----|
D|----0----x----x--x----x--x----x---x----2----|
A|---------4----2--3----2--1----x---x----0----|
E|------------------------------1---3---------|

Post-chorus
e|---0-----0-----3-----3---|
B|---0-----1-----3-----3---|
G|---0-----0-----0-----0---|
D|---2-----2-----0-----0---|
A|---2-----3-----x-----x---|
E|---0-----------3-----2---|    

Added On December 16th, 2013

SHARE

Comments

blog comments powered by Disqus

ADVERTISEMENT