Dave Matthews Band Tabs

Dreamgirl

4 versions

TAB

            Dreamgirl Tab by Dave Matthews Band


play this and you be like dave
Listen to song for rhythm

Into and chorus 
E|-|---------------------------------------------------------------|
B|-|---------------------------------------------------------------|
G|-|---------------------------------------------------------------|
D|-|------9-7-6----6-7-6------6-4-2----2-4-2-----------------------|
A|-|----7--------7---------4--------4------------------------------|
E|-|----0------------------0---------------------------------------|
             (let the open E ring throughout)
Verse
E|-|----------|-------------|----------------------------------------|
B|-|----------|-------------|----------------------------------------|
G|-|----------|-------------|----------------------------------------|
D|-|----6-----|----7------9-|--6-------------------------------------|
A|-|----7-----|----7------7-|--7-------------------------------------|
E|-|----0-----|----0------0-|--0-------------------------------------|
             
Pre-Chorus:				x3        b\f chorus
e|-------------------------------------------|------------------|
B|-------------------------------------------|------------------|
G|-------------------------------------------|---1--------------|
D|-9-----9-----9----------6--6h7--6---6------|---x--------------|
A|----7-----6-----6-----7-----------7--------|---4--------------|
E|-9--------7--------5-----------------------|---2--------------|

Bridge

e|------------------|
B|------------------|
G|--99999-----------|
D|--99999-----------|
A|--77777-----------|
E|--00000-----------|


Spend your living days well;)    

Added On December 4th, 2013

SHARE

Comments

blog comments powered by Disqus

VERSIONS

ADVERTISEMENT