David Cook Tabs

I Still Havent Found What Im Looking For

1 versions

TAB

            Capo on 6th fret


(with delay)


e|------------------------------------------|
B|----------------------------4-------------|
G|--------4-----4----------4------4---------| (2)
D|----2------2-----2----2-------------------|
A|------------------------------------------|
E|--0-----------------0---------------------|

e|-------------------------------------------------------------------|
B|------------------------------4-----------------------------4------|
G|--------4-----4------------4------4------4----4----------4------4--|
D|-----2-----2-----2------2-------------2-----2----2----2------------|
A|--0------------------0---------------------------------------------|
E|------------------------------------0---------------0--------------|

e|--------------------------------------------------------------------|
B|--------0-----0--------------4------------------------------4-------|
G|--------------------------4----4---------4-----4---------4-----4----|
D|------4----4----4------2-------------2------2-----2----2------------|
A|---2----------------0-----------------------------------------------|
E|-----------------------------------0-----------------0--------------|
   but I still....

End:
e|--0-----0-----0---------|
B|--0-----0-----0---------|
G|--4-----2-----4---------|
D|--4-----2-----4---------|
A|--2-----0-----2---------|
E|--------------0---------|    

Added On December 16th, 2013

SHARE

Comments

blog comments powered by Disqus

ADVERTISEMENT