David Crowder Band Tabs

O For A Thousand Tongues To Sing

2 versions

TAB

            Alright this is a great song...but my first time tabbing...no one else has tabbed
this song..this is 99% right...tune your guitar E,A,E,E,B,E and a capo on the 3rd
fret


E|-------------------------------------------------------------------------|
A|-------------------------------------------------------------------------|
E|-------------------------------------------------------------------------|
E|--0-0--0-0---0---0--0--0--0--0--0--0--0---0--0---0--0---0----------------|
B|--8-8--8H10-P10--12-12-10-12-13-13-12-10--10H12-P12P10--8----------------|
E|--0-0--0-0---0---0--0--0--0--0--0--0--0---0--0---0--0---0----------------|

Repeat that-

          E|----------------------------------------------------------------|
          A|--10-10--12--14-14--12--14-15-15-15-14-12-----------------------|
Down Beat E|----------------------------------------------------------------|
          E|----------------------------------------------------------------|
          B|--8--8---10--12-12--10--12-13-13-13-12-10-----------------------|
          E|----------------------------------------------------------------|

Repeat that-


Verse 1 part1:
          E|--------------------------10-10-----------------------10--------|
          A|--10-10-10-10-10-10-12-12-12-12--10-10-10-5-0-0-10-10-----------|
          E|----------------------------------------------------------------|
Down Beat E|----------------------------------------------------------------|
          B|----------------------------------------------------------------|
          E|----------------------------------------------------------------|


In between parts:
          E|----------------------------------------------------------------|
          A|--10-10-12-14-14-14-14------------------------------------------|
Down Beat E|----------------------------------------------------------------|
          E|----------------------------------------------------------------|
          B|--8--8--10-12-12-12-12------------------------------------------|
          E|----------------------------------------------------------------|

Verse 1 part2:
          E|--------------------------10-10-----------------------10--------|
          A|--10-10-10-10-10-10-12-12-12-12--10-10-10-5-0-0-10-10-----------|
          E|----------------------------------------------------------------|
Down Beat E|----------------------------------------------------------------|
          B|----------------------------------------------------------------|
          E|----------------------------------------------------------------|

between verse and chorus:
          E|----------------------------------------------------------------|
          A|--10-10-12-14-14-14-14------------------------------------------|
down beat E|----------------------------------------------------------------|
          E|----------------------------------------------------------------|
          B|--8--8--10-12-12-12-12------------------------------------------|
          E|----------------------------------------------------------------|

Chorus:
      E|--0-0-0--4-4-4--2-2-2--0-0-0--0-0-0--4-4-4--2-2-2-2-2----------------|
      A|--0-0-0--2-2-2--4-4-4--2-2-2--0-0-0--2-2-2--4-4-4-4-4----------------|
Strum E|--0-0-0--0-0-0--0-0-0--0-0-0--0-0-0--0-0-0--0-0-0-0-0----------------|
      E|--0-0-0--0-0-0--0-0-0--0-0-0--0-0-0--0-0-0--0-0-0-0-0----------------|
      B|--0-0-0--0-0-0--0-0-0--0-0-0--0-0-0--0-0-0--0-0-0-0-0----------------|
      E|--0-0-0--0-0-0--0-0-0--0-0-0--0-0-0--0-0-0--0-0-0-0-0----------------|

Between chorus and verse:
          E|----------------------------------------------------------------|
          A|--10-10--12--14-14--12--14-15-15-15-14-12-----------------------|
Down Beat E|----------------------------------------------------------------|
          E|----------------------------------------------------------------|
          B|--8--8---10--12-12--10--12-13-13-13-12-10-----------------------|
          E|----------------------------------------------------------------|

so basically...follow taht structure through out the song...and the bridge is simply..

          E|-------------------------------|
          A|--10-10-19-10-10-10-10-10-10---|
Down Beat E|-------------------------------|   etc...
          E|-------------------------------|
          B|-------------------------------|
          E|-------------------------------|

I hope this works out for you guys....God bless...

-Drattigangster    

Added On December 16th, 2013

SHARE

Comments

blog comments powered by Disqus

VERSIONS

ADVERTISEMENT