David Gray Tabs

Wisdom

3 versions

TAB

            Wisdom Tab by David Gray


David Gray - Wisdom
Tabbed By: CYL


This is quite a simple song:'Wisdom' from the album:'A Century Ends'
written by David Gray

intro:
-77777---00---55555---00----
-77777---00---55555---00----
-88888---11---66666---11----
-99-99---22---77-66---22----
-99-99---22---77-66---22----
-77-77---00---55-55---00----


verse:
-5-5-5---7-7-7---
-5-5-5---7-7-7---
-6-6-6---8-8-8---
-7-7-7---9-9-9---
-7-7-7---9-9-9---
-5-5-5---7-7-7---

the chorus is just the same as the intro.    

Added On December 4th, 2013

SHARE

Comments

blog comments powered by Disqus

VERSIONS

ADVERTISEMENT