Death Cab For Cutie Tabs

Cath

3 versions

TAB

            -------------------------------------------------------------------------------
			     CATH - Death Cab For Cutie
-------------------------------------------------------------------------------
Tabbed by: Kevin Reed
Email: kevin.12389@gmail.com

Tuning: Standard E

CAPO 2 !

-------------------------------------------------------------------------------

Intro

e---------------------------------------------------------------------|
B-x-x-x-x-0-/0-0-0--------------------------------------—3—0----------|
G-x-x-x-x-2-/4-4-4-p0-----------------0-----------------—0—0----------|
D-----------------------------0-h2-h4-------------------—0—0----------|
A---------------------------3----------------------------x-x----------|
E----------------------------------------------------3-3—3—3----------|

e-------------------------------------------------------------|
B-0-/0-0-0--------------------------------------—3—0----------|
G-2-/4-4-4-p0-----------------0-----------------—0—0----------|
D---------------------0-h2-h4-------------------—4—0----------|
A-------------------3----------------------------x-x----------|
E--------------------------------------------3-3—3—3----------|

e-------------------------------------------------------------|
B-0-/0-0-0--------------------------------------—3—0----------|
G-2-/4-4-4-p0-----------------0-----------------—0—0----------|
D---------------------0-h2-h4-------------------—0—0----------|
A-------------------3----------------------------x-x----------|
E--------------------------------------------3-3—3—3----------|

e------------------------|
B-0---0---0---0----------|
G-9---7---6---2----------|
D-x---x---x---x----------|
A-7---5---4---0----------|
E------------------------|

Verse 1

e----------------------------|
B--5---0---0-----------------|
G--0---0---0--s2p0-0---------|
D--x---x---x-----------------|   x10
A--3---2---3-----------------|
E----------3-----------------|

Chorus 1

e----------------------------------------------------------------------------|
B-0---0---0---0------------------------------0----------------------------0--|
G-9---7---6---2------------------0-----------0----------------0-----------0--|
D-x---x---x---x---------0-h2-h4--------------0-------0-h2-h4--------------0--|  x2
A-7---5---4---0------3-----------------------x----3-----------------------x--|
E-----------------------------------3----3-3-3-------------------3----3-3-3--|

Verse 2

e----------------------------|
B--5---0---0-----------------|
G--0---0---0--s2p0-0---------|
D--x---x---x-----------------| x6
A--3---2---3-----------------|
E----------3-----------------|

Interlude 2

e-----------7-----5-----------------|
B--8--8-------8-----8----8--8-------|
G--------7-------7-----7-------7----|  x 8
D-----------------------------------|
A-----------------------------------|
E-----------------------------------|

Final Chorus

e----------------------------------------------------------------------------|
B-0---0---0---0------------------------------0----------------------------0--|
G-9---7---6---2------------------0-----------0----------------0-----------0--|
D-x---x---x---x---------0-h2-h4--------------0-------0-h2-h4--------------0--|
A-7---5---4---0------3-----------------------x----3-----------------------x--|
E-----------------------------------3----3-3-3-------------------3----3-3-3--|

e----------------------------------------------------------------------------|
B-0---0---0---0------------------------------0----------------------------0--|
G-9---7---6---2------------------0-----------0----------------0-----------0--|
D-x---x---x---x---------0-h2-h4--------------0-------0-h2-h4--------------0--|
A-7---5---4---0------3-----------------------x----3-----------------------x--|
E-----------------------------------3----3-3-3-------------------3----3-3-3--|

E-------------------------------------|
B-0---0---0---0---3—--3—--2-----------|
G-9---7---6---2---0—--0—--2-----------|
D-x---x---x---x---2—--0—--2-----------|
A-7---5---4---0---3—--2—--0-----------|
E-------------------------------------|


e---------------------------------------------------------------------------|
B-0---0---0---------------------------------0----------------------------0--|
G-9---11--12--------------------0-----------0----------------0-----------0--|
D-x---x---x------------0-h2-h4--------------0-------0-h2-h4--------------0--|
A-7---9---10--------3-----------------------x----3-----------------------x--|
E----------------------------------3----3-3-3-------------------3----3-3-3--|

e-------------------------------------------------------------|
B-----------------------------0----------------------------0--|
G-----------------0-----------0----------------0-----------0--|
D--------0-h2-h4--------------0-------0-h2-h4--------------0--|
A-----3-----------------------x----3-----------------------x--|
E--------------------3----3-3-3-------------------3----3-3-3--|

e------------------------|
B-0---0---0-\-0----------|
G-9---7---6-\-2----------|
D-x---x---x-\-x----------|
A-7---5---4-\-0----------|
E------------------------|


| /  slide up
| \  slide down
| h  hammer-on
| p  pull-off
| ~  vibrato
| +  harmonic
| x  Mute note
===============================================================================    

Added On December 16th, 2013

SHARE

Comments

blog comments powered by Disqus

VERSIONS

ADVERTISEMENT