Death Cab For Cutie Tabs

Different Names For The Same Things

3 versions

TAB

            Different Names For The Same Things Tab by Death Cab For Cutie


Band : Death Cab For Cutie
Song : Different Names For The Same Things
Album: Plans
Tabbed By: Calum (afirock74@hotmail.com)
Standard Tunning

x   - Palm Mute
b   - Bend
b~  - Bend Up Then Down
h   - Hammer-On Directly After Note Before

Intro/Verse: (piano part)
e|-------------------------------------------------------------------------------|
B|-------------------------------------------------------------------------------|
G|-------------------------------------------------------------------------------|
D|-7----7--8----8--5----5--4----4--4--7----7--6----6--5----5--4----4--4----4--4--|
A|-5-5-5-5-5-5-5-5-5-5-5-5-5-5-5-5-5--5-5-5-5-5-5-5-5-5-5-5-5-5-5-5-5-5-5-5-5-5--|
E|-------------------------------------------------------------------------------|

Chorus:
e|---------------------------------------|
B|---------------------------------------|
G|---------------------------------------|
D|--9-----9----4-----4----5-----5----7---|
A|--9-9-9-9-9--4-4-4-4-4--5-5-5-5-5--5---|
E|--7-7-7-7-7--2-2-2-2-2--3-3-3-3-3------|

Bass Bridge: (timing Is Tricky)
G|------------------------------|
D|----------------------4-------|
A|-5-5/9/5--4/5-5---5-5--5-4/5--|
E|------------------------------|

Outro 1:
e|---------------|
B|---------------|
G|---------------|
D|--9--4--5--7---|
A|--9--4--5--7---|
E|--7--2--3--5---|

Outro 2:
e|---------------|
B|---------------|
G|-----------7---|
D|--9--4--5--7---|
A|--9--4--5--5---|
E|--7--2--3------|    

Added On December 4th, 2013

SHARE

Comments

blog comments powered by Disqus