Death Cab For Cutie Tabs

Lack Of Color

8 versions

TAB

            Lack Of Color Tab by Death Cab For Cutie


lack of color
Death cab for cutie
transatlanticism

tune down 1/2 step(d#,g#,c#,f#,a#,d#)

/=slide down
\=slide down
+=harmonic
~=vibrato


d#--------------------------------------------|
g#--------------------------------------------|
c#--------------------------------------------|
f#--------------------------------------------|
a#---11---11-11---11-11---11/7--7-7---7--7\11-|
d#-0---0--------0-------0-----------0---------|

d#--------------------------------------------|
g#--------------------------------------------|
c#--------------------------------------------|
f#--------------------------------------------|
a#---11---11-11---11-11---11/9-9-----9--------|
d#-0---0--------0-------0---------0-----------|

d#--------------------------------------------------------------------|
g#--------------------------------------------------------------------|
c#--------------------------------------------------------------------|
f#--14-14---14-14---14-14----------------------------14-14------------|
a#---------------------------14-14---12-12---12-12------------14-14---|
d#--------0-------0-------0--------0-------0-------0-------0--------0-|

Repeat 8 times

Bridge

d#------------------------------------------------|
g#------------------------------------------------|
c#----11-11-11-11-11----------12-12-12-12-12------|
f#----11-11-11-11-11-(x2)-----12-12-12-12-12-(x2)-|
a#-9--9--9--9--9--9-------10--10-10-10-10-10------|
d#------------------------------------------------|

d#-------------------------------------------------|
g#-------------------------------------------------|
c#-16-16-16-16-16--11-11-11-11-11--9-9-9-9-9-------|
f#-16-16-16-16-16--11-11-11-11-11--9-9-9-9-9(x2)---|
a#-14-14-14-14-14--9--9--9--9--9---7-7-7-7-7-------|
d#-------------------------------------------------|

d#------------------------------------------------|
g#------------------------------------------------|
c#----11-11-11-11-11----------12-12-12-12-12------|
f#----11-11-11-11-11-(x2)-----12-12-12-12-12-(x2)-|
a#-9--9--9--9--9--9-------10--10-10-10-10-10------|
d#------------------------------------------------|

d#-------------------------------------------------------|
g#-------------------------------------------------------|
c#-13-13-13-13-13-13--11-11-11-11-11-11-9-9-9-9-9-9------|
f#-11-11-11-11-11-11--9--9--9--9--9--9--9-9-9-9-9-9------|(x2)   {play 4 times}
a#-11-11-11-11-11-11--9--9--9--9--9--9--7-7-7-7-7-7------|
d#-------------------------------------------------------|

outro

d#--------------------------------------------|
g#--------------------------------------------|
c#--------------------------------------------|
f#--------------------------------------------|
a#---11---11-11---11-11---11/7--7-7---7--7\11-|
d#-0---0--------0-------0-----------0---------|

d#--------------------------------------------|
g#--------------------------------------------|
c#--------------------------------------------|
f#--------------------------------------------|
a#---11---11-11---11-11---11/9-9-----9--------|
d#-0---0--------0-------0---------0-----------|

d#--------------------------------------------------------------------|
g#--------------------------------------------------------------------|
c#--------------------------------------------------------------------|
f#--14-14---14-14---14-14----------------------------14-14------------|
a#---------------------------14-14---12-12---12-12------------14-14---|
d#--------0-------0-------0--------0-------0-------0-------0--------0-|

Tabbed by takamine2    

Added On December 4th, 2013

SHARE

Comments

blog comments powered by Disqus