Deb Talan Tabs

Comfort

1 versions

TAB

            Comfort Tab by Deb Talan


http://www.debtalan.com/

Tabbed by:  Matt Mink
Email:  e-mail@matthewjmink.com

Tuning:  EADGBd 

Capo:  8th Fret

INTRO/VERSE 1
d|--------0-----------0-----------0-----------0-----------------------|
B|-----------1-----------1-----------1-----------1--------0--1--------|
G|-----0-----------0-----------0-----------0-----------0--------------|
D|--------------------------------------------------------------------|
A|--3-----------2-----------0-----------------------------------------|
E|--------------------------------------3-----------1-----------------|


d|----------------------------------------(-----------)---|
B|--------0--1----------0--1--------0--1—-(-------0—1-)---|
G|-----0-------------0-----------0--------(----0------)---|
D|----------------------------------------(-----------)---|
A|----------------------------------------(-----------)---|
E|--0-----------0h1-----------3-----------(-3---------)---|


CHORUS
d|--------------------------------------------------------------------|
B|--------1--1--------1--1--------1--1--------1--1--------0--1--------|
G|-----5-----------5-----------5-----------5-----------0--------------|
D|--------------------------------------------------------------------|
A|--0-----------0-----------------------------------------------------|
E|--------------------------0-----------0-----------1-----------------|

d|--------------------------------------------------------------------|
B|--------0--1--------0--1--------0--1--------------------------------|
G|-----0-----------0-----------0--------------------------------------|
D|--------------------------------------------------------------------|
A|--------------------------------------------------------------------|
E|--1-----------3-----------3-----------------------------------------|

(then play this)
d|-------------------------------------------------------|
B|--------1--1--------1--1--------0--1--------0--1-------|
G|-----5-----------5-----------0-----------0-------------| x3
D|-------------------------------------------------------|
A|--0----------------------------------------------------|
E|--------------0-----------1-----------3----------------|


BRIDGE
For the first part I just play something I made up.  I can’t completely figure out what Deb is playing.

(then play this)
d|-------------------------------------------------------|
B|--------1--1--------1--1--------0--1--------0--1-------|
G|-----5-----------5-----------0-----------0-------------| x2
D|-------------------------------------------------------|
A|--0----------------------------------------------------|
E|--------------0-----------1-----------3----------------|


CHORUS 2
d|--------------------------------------------------------------------|
B|--------1--1--------1--1--------1--1--------1--1--------0--1--------|
G|-----5-----------5-----------5-----------5-----------0--------------|
D|--------------------------------------------------------------------|
A|--0-----------0-----------------------------------------------------|
E|--------------------------0-----------0-----------1-----------------|


d|--------------------------------------------------------------------|
B|--------0--1--------0--1--------0--1--------------------------------|
G|-----0-----------0-----------0--------------------------------------|
D|--------------------------------------------------------------------|
A|--------------------------------------------------------------------|
E|--1-----------3-----------3-----------------------------------------|

(then play this)
d|-------------------------------------------------------|
B|--------1--1--------1--1--------0--1--------0--1-------|
G|-----5-----------5-----------0-----------0-------------| x2
D|-------------------------------------------------------|
A|--0----------------------------------------------------|
E|--------------0-----------1-----------3----------------|

(then play this)
d|--------------------------------------------------------------------|
B|--------1--1--------1--1--------1--1--------1--1--------0--1--------|
G|-----5-----------5-----------5-----------5-----------0--------------|
D|--------------------------------------------------------------------|
A|--0-----------0-----------------------------------------------------|
E|--------------------------0-----------0-----------1-----------------|

d|--------------------------------------------------------------------|
B|--------0--1--------1--1--------1--1--------0--1--------0--1--------|
G|-----0-----------5-----------5-----------0-----------0--------------|
D|--------------------------------------------------------------------|
A|--------------0-----------------------------------------------------|
E|--3----------------------0-----------1-----------3------------------|



INTRO/VERSE (x2)

INTRO/VERSE (x4)
When everyone has gone to sleep
And you are wide awake
There’s no one left to tell your troubles to

Just an hour ago, you listened to their voices
Wilting like a river over underground
And the light from downstairs
Came up soft like daybreak
Dimly as the heartache of a lonely child

CHORUS
And if you can’t remember
A better time
You can have mine
Little one
In days to come
When your heart feels undone
May you always find an open hand
Take comfort wherever you can, 
You can, you can

INTRO/VERSE

BRIDGE
And oh, it’s a strange place
And oh, everyone with a different face
But just like you thought
When you stopped here to linger
We’re only as separate
As your little fingers

INTRO/VERSE (x3)
So cry.  Why not? We all do.
And turn to the one you love.
And smile a smile
That lights up all the room.
And follow your dreams
In through every out door 
It seems that’s what we’re here for

CHORUS 2
And if you can’t remember
A better time
You can have mine
Little one
In days to come
When your heart feels undone
May you always find an open hand
Take comfort, there is comfort.
Take comfort wherever you can, 
You can, you can

INTRO/VERSE

=======================================================================    

Added On December 4th, 2013

SHARE

Comments

blog comments powered by Disqus

ADVERTISEMENT