Deer Tick Tabs

Easy

1 versions

TAB

            This should be mostly right. I'm open to suggestions for corrections.
Enjoy.

intro
e|---------------|
b|---------------|
g|--9~-7~-5~-4~--| 2Xs
d|---------------|
a|--7~-5~-3~-2~--|
e|---------------|

e|------------------------------|
b|------------------------------|
g|--9---12-11--14--17--19--16---| 2Xs
d|------------------------------|
a|--7---10--9--12--15--17--14---|
e|------------------------------|

before the verse pick an Emin:
e|-----------|
b|------8----|
g|--------9--|
d|----9------|
a|--7--------|
e|-----------|

A G chord is also picked like such:
e|-----------|
b|------3----|
g|--------4--|
d|-----------|
a|----5------|
e|--3--------|

And also a C:
e|------------|
b|-------8----|
g|---------9--|
d|------------|
a|----10------|
e|--8---------|



Em 
I woke up this morning
        G 
I was feeling that this should end
       Em
Using all that time
                  G
And all my luck friends
Em
I've got a bad defense
           G
And it's not just circumstance
        C
That put me here
                             D*(build up by strumming harder)
In a bad, bad place where I stand
                   G D Em 
And you don't know
                   G D Em 
How easy it is
                   G D Em 
No, you don't know 
                   G D Em 
how easy it is
                   G D Em 
You were never there
                   G D Em 
No, never there

 *repeat verse chords/picking* 

Out the door
With the devil in my eyes
That son of a bitch crossed me once
But he won't cross me twice
Little angel on my shoulder
Well she better be right
She got me flying like a wild man
In the middle of the night

 *repeat chorus*

And you don't know how easy it is
No, you don't know how easy it is
You were never there
No, never there

C            Em 
This whole world
G                  D
And everything you see 
C              Em                      D
There ain't nothing that'll keep you from

Getting to me

No, you don't know how easy it is
No, you don't know how easy it is
You got no idea how easy it is
No, you don't know how easy it is
You were never there
No, never there
Never there

D*= e|-10-
    b|-10-
    g|-11-
    d|-12-
    a|-12-
    e|-10-    

Added On December 16th, 2013

SHARE

Comments

blog comments powered by Disqus

ADVERTISEMENT