Deftones Tabs

Swerve City

1 versions

TAB

            -------------------------------------------------------------------------------
                                                SWERVE CITY - Deftones
-------------------------------------------------------------------------------

THIS TAB IS TO BE USED AS A GUIDELINE AND IS IN NO WAY 100% ACCURATE

Tabbed by: desertscoldmoon
Tuning: E-B-E-A-D-G-B-E

E|-----------------|
B|-----------------|
G|-----------------|
D|-----------------|
A|-----------------| x8
E|-----------------|
B|-3-3-3-3-3h4p3p0-|
E|-----------------|


E|-----------------------------------------------------------------|
B|-----------------------------------------------------------------|
G|-----------------------------------------------------------------|
D|-8-8-8-8-8-8-8-8-8-8-8-8-8-8-8-8-8-8-8-8-8-8-8-8-8-8-8-8-8-8-8-8-|
A|-8-8-8-8-8-8-8-8-8-8-8-8-8-8-8-8-8-8-8-8-8-8-8-8-8-8-8-8-8-8-8-8-| x2
E|-6-6-6-6-6-6-6-6-6-6-6-6-6-6-6-6-6-6-6-6-6-6-6-6-6-6-6-6-6-6-6-6-|
B|-6-6-6-6-6-6-6-6-6-6-6-6-6-6-6-6-6-6-6-6-6-6-6-6-6-6-6-6-6-6-6-6-|
E|-------------------------------------6-6-6-6-6-6-6-6-6-6-6-6-6-6-|


E|-----|
B|-----|
G|-----|
D|-----|
A|-----| x1
E|-----|
B|-3-3-|
E|-3-3-|
   . .

E|-----------------|
B|-----------------|
G|-----------------|
D|-----------------|
A|-----------------| x8
E|-----------------|
B|-3-3-3-3-3h4p3p0-|
E|-----------------|


E|-----------------------------------------------------------------|
B|-----------------------------------------------------------------|
G|-----------------------------------------------------------------|
D|-8-8-8-8-8-8-8-8-8-8-8-8-8-8-8-8-8-8-8-8-8-8-8-8-8-8-8-8-8-8-8-8-|
A|-8-8-8-8-8-8-8-8-8-8-8-8-8-8-8-8-8-8-8-8-8-8-8-8-8-8-8-8-8-8-8-8-| x2
E|-6-6-6-6-6-6-6-6-6-6-6-6-6-6-6-6-6-6-6-6-6-6-6-6-6-6-6-6-6-6-6-6-|
B|-6-6-6-6-6-6-6-6-6-6-6-6-6-6-6-6-6-6-6-6-6-6-6-6-6-6-6-6-6-6-6-6-|
E|-------------------------------------6-6-6-6-6-6-6-6-6-6-6-6-6-6-|


E|-----|
B|-----|
G|-----|
D|-----|
A|-----| x1
E|-----|
B|-3-3-|
E|-3-3-|
   . .

E|-----------------|
B|-----------------|
G|-----------------|
D|-----------------|
A|-----------------| x8
E|-----------------|
B|-3-3-3-3-3h4p3p0-|
E|-----------------|


E|-----------------------------------------------------|
B|-----------------------------------------------------|
G|-----------------------------------------------------|
D|-----------------------------------------------------|
A|-10-10-10-10-10-10-10-10-10-10-10-10-----------------| x4
E|-10-10-10-10-10-10-10-10-10-10-10-10-----------------|
B|-8--8--8--8--8--8--8--8--8--8--8--8--8/7-7/6-6/5-5/4-|
E|-----------------------------------------------------|


E|-17t-----------17t-13t----15t-|
B|--------15t-------------------|
G|------------------------------|
D|------------------------------|
A|------------------------------| x4
E|------------------------------|
B|------------------------------|
E|------------------------------|


E|------------------------------|
B|------------------------------|
G|------------------------------|
D|------------------------------|
A|------------------------------| x1
E|------------------------------|
B|------------------------------|
E|-15\3-------------------------|


E|-----------------|
B|-----------------|
G|-----------------|
D|-----------------|
A|-----------------| x11
E|-----------------|
B|-3-3-3-3-3h4p3p0-|
E|-----------------|


E|-----------------|
B|-----------------|
G|-----------------|
D|-----------------|
A|-----------------| x1
E|-----------------|
B|-3-3-3-3-3h4-----|
E|-----------------|    

Added On December 16th, 2013

SHARE

Comments

blog comments powered by Disqus

ADVERTISEMENT