Del Amitri Tabs

Tell Her This

6 versions

TAB

            This tab requires an alternate tuning and a capo on the 5th fret, to do it:

E - D (Down one tone)
A - A
D - D
G - G
B - A (Down one tone)
E - D (Down one tone)


Through out the song, you can strum all of the strings, but it'll sound closer to the 
if you only do the high strings lightly. All fingerings relative to the capo.

Intro


e|------0-----------2-------0------------------------------------|
B|------0-----------0-------2------------------------------------|
G|------2-----------0-------0------------------------------------| x 2
D|------4----------0h2------0------------------------------------|
A|------0-----------0-------0------------------------------------|
E|------0-----------0-------0------------------------------------|

Verse:


e|---0-----------0-------0------------------------------------|
B|---0-----------0-------0------------------------------------|
G|---0-----------0-------0------------------------------------|
D|---4-----------2-------4------------------------------------|
A|---5-----------2-------2------------------------------------|
E|---4-----------2-------2------------------------------------|


          Tell   her    not   to    go

e|---0-----------0------------0---------------------------------|
B|---0-----------0------------0---------------------------------|
G|---0-----------0------------0---------------------------------|
D|---4-----------2------------4---------------------------------|
A|---5-----------2------------2---------------------------------|
E|---4-----------2------------2---------------------------------|

          I   ain't holding   on    no    more

e|--0-----------0--------------0------------0---------------0---2---0---|
B|--2-----------4--------------2------------4---------------0---0---2---|
G|--0-----------0--------------0------------0---------------2---0---0---|
D|--0-----------0--------------0------------0---------------4---2---0---|
A|--2-----------4--------------2------------4---------------0---0---0---|
E|--0-----------0--------------0------------0---------------0---0---0---|

      Tell her something in my mind freezes up from time to time


The end of that part goes back into the intro chords, which are sometimes played twice 
sometimes once. Thats the structure throughout the song.


Tell her not to go
I ain't holding on no more
Tell her something in my mind freezes up from time to time


Tell her not to cry
I just got scared thats all
Tell her I'll be by her side, all she has to do it call
All she has to do is call

Tell her the chips are down
I drank too much and shouted it aloud
Tell her something in my heart needs her more than even clowns
Need the laughter of the crowd.


Tell her what was wrong
I sometimes think too much but say nothing at all
Tell her from this high terrain, I am ready now to fall
I am ready now to fall


Tell her not to go
I ain't holding on no more
Tell her nothing if not this, all I want to do is kiss her


Tell her something in my mind freezes up from time to time.    

Added On December 16th, 2013

SHARE

Comments

blog comments powered by Disqus