Derek Webb Tabs

Cant Sleep

1 versions

TAB

            Standard Tuning
No Capo

Pretty tricky song with all the weird chords put in there, but I did my best!

Intro:
e|--------|--------|
B|--------|--------|
G|-2-2-2-2|-2-2-2-2| x3
D|0-0-0-0-|0-0-0-0-|
A|--------|--------|
E|--------|--------|

I can't sleep...
e|--------|--------|
B|--------|--------|
G|-2-2-2-2|-2-2-2-2| x2
D|--------|--------|
A|1-1-1-1-|1-1-1-1-|
E|--------|--------|

MAIN RIFF
e|--------|--------|--------|--------|
B|--------|--------|--------|--------|
G|--------|--------|--------|--------|
D|-4-4-4-4|-4-4-4-4|-2-2-2-2|-2-2-2-2|
A|2-2-2-2-|2-2-2-2-|1-1-1-1-|1-1-1-1-|
E|--------|--------|--------|--------|

e|--------|--------|--------|--------|
B|--------|--------|--------|--------|
G|--------|--------|--------|--------|
D|-4-4-4-4|-4-4-4-4|-2-2-2-2|-2-2-2-2|
A|2-2-2-2-|2-2-2-2-|--------|--------|
E|--------|--------|0-0-0-0-|0-0-0-0-|


Repeats many times, until...

...here beneath these sheets...
e|--------|--------|--------|--------|
B|---3----|---3----|---2----|---2----|
G|--2-2---|--2-2---|--0-0---|--0-0---| x1
D|-4---4-4|-4---4-4|-2---2-2|-2---2-2|
A|0-----0-|0-----0-|1-----1-|1-----1-|

e|--------|--------|--------|--------|
B|---3----|---3----|---0----|---0----|
G|--4-4---|--4-4---|--0-0---|--0-0---| x3
D|-4---4-4|-4---4-4|-2---2-2|-2---2-2|
A|2-----2-|2-----2-|2-----2-|2-----2-|
E|--------|--------|--------|--------|

I can't sleep! (outro)
e|--------|--------|--------|--------|
B|--------|--------|--------|--------|
G|--------|--------|--------|--------|
D|-4-4-4-4|-4-4-4-4|-2-2-2-2|-2-2-2-2|
A|2-2-2-2-|2-2-2-2-|1-1-1-1-|1-1-1-1-|
E|--------|--------|--------|--------|

e|--------|--------|--------|--------|
B|--------|--------|--------|--------|
G|--------|--------|--------|--------|
D|-2-2-2-2|-2-2-2-2|-0-0-0-0|-0-0-0-0| (repeat until end)
A|--------|--------|--------|--------|
E|4-4-4-4-|4-4-4-4-|3-3-3-3-|3-3-3-3-|

That's it! Hope it works :) Enjoy!    

Added On December 16th, 2013

SHARE

Comments

blog comments powered by Disqus

ADVERTISEMENT