Destroyer Tabs

Your Blood

1 versions

TAB

            Title: Your Blood
Artist: Destroyer
Composer: Dan Bejar
Album: Destroyer's Rubies
Year: 2006

Capo on fourth fret.

Intro:

e|------0---0-0---0-0---0---0-0---------0---0-0---0-0---0---0-0------|
B|------0---0-0---1-1---1---1-1---------0---0-0---1-1---1---1-1------|
G|------0---0-0---0-0---0---0-0---------0---0-0---0-0---0---0-0------|
D|------2---2-2---2-2---2---2-2---------2---2-2---2-2---2---2-2------|
A|---3--3---------0-0---0---0-0---------3---------0-0---0---0-0------|
E|--3---3----------------------------3--3----------------------------|

e|---1-1---1-1---3-3--3--3-3---1-1---1-1---3-3--3--3-3---------------|
B|---1-1---1-1---0-0--0--0-0---1-1---1-1---0-0--0--0-0---------------|
G|---2-2---2-2---0-0--0--0-0---2-2---2-2---0-0--0--0-0---------------|
D|---3-3---3-3---0-0--0--0-0---3-3---3-3---0-0--0--0-0---------------|
A|---------------2-2--2--2-2---------------2-2--2--2-2---------------|
E|---------------3-3--3--3-3---------------3-3--3--3-3---------------|


e|------0---0-0---0-0---0---0-0---------0---0-0---0-0---0---0-0------|
B|------0---0-0---1-1---1---1-1---------0---0-0---1-1---1---1-1------|
G|------0---0-0---0-0---0---0-0---------0---0-0---0-0---0---0-0------|
D|------2---2-2---2-2---2---2-2---------2---2-2---2-2---2---2-2------|
A|------3---------0-0---0---0-0---------3---------0-0---0---0-0------|
E|---3--3----------------------------3--3----------------------------|

e|---1-1---1-1---3-3--3--3-3---1-1---1-1---3-3--3--3-3---------------|
B|---1-1---1-1---0-0--0--0-0---1-1---1-1---0-0--0--0-0---------------|
G|---2-2---2-2---0-0--0--0-0---2-2---2-2---0-0--0--0-0---------------|
D|---3-3---3-3---0-0--0--0-0---3-3---3-3---0-0--0--0-0---------------|
A|---------------2-2--2--2-2---------------2-2--2--2-2---------------|
E|---------------3-3--3--3-3---------------3-3--3--3-3---------------|


Chords:

C/G
C/G
e |---|---|---|---|---|
B |---|---|---|---|-x-|
G |---|---|---|---|-x-|
D |---|---|---|---|-x-|
A |---|---|---|---|---|
E |---|---|-x-|---|---|
: 332010 Am
Am
e |---|---|---|---|---|
B |-x-|---|---|---|---|
G |---|-x-|---|---|---|
D |---|-x-|---|---|---|
A |---|---|---|---|---|
E |---|---|---|---|---|
: xx2210 F
F
e |-x-|---|---|---|---|
B |-x-|---|---|---|---|
G |---|-x-|---|---|---|
D |---|---|-x-|---|---|
A |---|---|-x-|---|---|
E |-x-|---|---|---|---|
: xx3211 G
G
e |---|---|-x-|---|---|
B |---|---|---|---|---|
G |---|---|---|---|---|
D |---|---|---|---|---|
A |---|-x-|---|---|---|
E |---|---|-x-|---|---|
: 32xxx3 Dm
Dm
e |-x-|---|---|---|---|
B |---|---|-x-|---|---|
G |---|-x-|---|---|---|
D |---|---|---|---|---|
A |---|---|---|---|---|
E |---|---|---|---|---|
: xx0231 Verse 1: C/G
C/G
e |---|---|---|---|---|
B |---|---|---|---|-x-|
G |---|---|---|---|-x-|
D |---|---|---|---|-x-|
A |---|---|---|---|---|
E |---|---|-x-|---|---|
Am
Am
e |---|---|---|---|---|
B |-x-|---|---|---|---|
G |---|-x-|---|---|---|
D |---|-x-|---|---|---|
A |---|---|---|---|---|
E |---|---|---|---|---|
C/G
C/G
e |---|---|---|---|---|
B |---|---|---|---|-x-|
G |---|---|---|---|-x-|
D |---|---|---|---|-x-|
A |---|---|---|---|---|
E |---|---|-x-|---|---|
Am
Am
e |---|---|---|---|---|
B |-x-|---|---|---|---|
G |---|-x-|---|---|---|
D |---|-x-|---|---|---|
A |---|---|---|---|---|
E |---|---|---|---|---|
I went for you in military times F
F
e |-x-|---|---|---|---|
B |-x-|---|---|---|---|
G |---|-x-|---|---|---|
D |---|---|-x-|---|---|
A |---|---|-x-|---|---|
E |-x-|---|---|---|---|
G
G
e |---|---|-x-|---|---|
B |---|---|---|---|---|
G |---|---|---|---|---|
D |---|---|---|---|---|
A |---|-x-|---|---|---|
E |---|---|-x-|---|---|
F
F
e |-x-|---|---|---|---|
B |-x-|---|---|---|---|
G |---|-x-|---|---|---|
D |---|---|-x-|---|---|
A |---|---|-x-|---|---|
E |-x-|---|---|---|---|
G
G
e |---|---|-x-|---|---|
B |---|---|---|---|---|
G |---|---|---|---|---|
D |---|---|---|---|---|
A |---|-x-|---|---|---|
E |---|---|-x-|---|---|
and, then, I waited well into the twenty three hundreds. C/G
C/G
e |---|---|---|---|---|
B |---|---|---|---|-x-|
G |---|---|---|---|-x-|
D |---|---|---|---|-x-|
A |---|---|---|---|---|
E |---|---|-x-|---|---|
Am
Am
e |---|---|---|---|---|
B |-x-|---|---|---|---|
G |---|-x-|---|---|---|
D |---|-x-|---|---|---|
A |---|---|---|---|---|
E |---|---|---|---|---|
I made my way through C/G
C/G
e |---|---|---|---|---|
B |---|---|---|---|-x-|
G |---|---|---|---|-x-|
D |---|---|---|---|-x-|
A |---|---|---|---|---|
E |---|---|-x-|---|---|
Am
Am
e |---|---|---|---|---|
B |-x-|---|---|---|---|
G |---|-x-|---|---|---|
D |---|-x-|---|---|---|
A |---|---|---|---|---|
E |---|---|---|---|---|
the Union Street design F
F
e |-x-|---|---|---|---|
B |-x-|---|---|---|---|
G |---|-x-|---|---|---|
D |---|---|-x-|---|---|
A |---|---|-x-|---|---|
E |-x-|---|---|---|---|
G
G
e |---|---|-x-|---|---|
B |---|---|---|---|---|
G |---|---|---|---|---|
D |---|---|---|---|---|
A |---|-x-|---|---|---|
E |---|---|-x-|---|---|
F
F
e |-x-|---|---|---|---|
B |-x-|---|---|---|---|
G |---|-x-|---|---|---|
D |---|---|-x-|---|---|
A |---|---|-x-|---|---|
E |-x-|---|---|---|---|
G
G
e |---|---|-x-|---|---|
B |---|---|---|---|---|
G |---|---|---|---|---|
D |---|---|---|---|---|
A |---|-x-|---|---|---|
E |---|---|-x-|---|---|
kids. Chorus: C/G
C/G
e |---|---|---|---|---|
B |---|---|---|---|-x-|
G |---|---|---|---|-x-|
D |---|---|---|---|-x-|
A |---|---|---|---|---|
E |---|---|-x-|---|---|
Am
Am
e |---|---|---|---|---|
B |-x-|---|---|---|---|
G |---|-x-|---|---|---|
D |---|-x-|---|---|---|
A |---|---|---|---|---|
E |---|---|---|---|---|
They were alright. C/G
C/G
e |---|---|---|---|---|
B |---|---|---|---|-x-|
G |---|---|---|---|-x-|
D |---|---|---|---|-x-|
A |---|---|---|---|---|
E |---|---|-x-|---|---|
Am
Am
e |---|---|---|---|---|
B |-x-|---|---|---|---|
G |---|-x-|---|---|---|
D |---|-x-|---|---|---|
A |---|---|---|---|---|
E |---|---|---|---|---|
They were on fire. C/G
C/G
e |---|---|---|---|---|
B |---|---|---|---|-x-|
G |---|---|---|---|-x-|
D |---|---|---|---|-x-|
A |---|---|---|---|---|
E |---|---|-x-|---|---|
Am
Am
e |---|---|---|---|---|
B |-x-|---|---|---|---|
G |---|-x-|---|---|---|
D |---|-x-|---|---|---|
A |---|---|---|---|---|
E |---|---|---|---|---|
C/G
C/G
e |---|---|---|---|---|
B |---|---|---|---|-x-|
G |---|---|---|---|-x-|
D |---|---|---|---|-x-|
A |---|---|---|---|---|
E |---|---|-x-|---|---|
Am
Am
e |---|---|---|---|---|
B |-x-|---|---|---|---|
G |---|-x-|---|---|---|
D |---|-x-|---|---|---|
A |---|---|---|---|---|
E |---|---|---|---|---|
Dm
Dm
e |-x-|---|---|---|---|
B |---|---|-x-|---|---|
G |---|-x-|---|---|---|
D |---|---|---|---|---|
A |---|---|---|---|---|
E |---|---|---|---|---|
They harbored an elementary desire to do good works. I bought 'em all, I bought 'em all! I made donations to The Plague, and The Fall C/G
C/G
e |---|---|---|---|---|
B |---|---|---|---|-x-|
G |---|---|---|---|-x-|
D |---|---|---|---|-x-|
A |---|---|---|---|---|
E |---|---|-x-|---|---|
Am
Am
e |---|---|---|---|---|
B |-x-|---|---|---|---|
G |---|-x-|---|---|---|
D |---|-x-|---|---|---|
A |---|---|---|---|---|
E |---|---|---|---|---|
C/G
C/G
e |---|---|---|---|---|
B |---|---|---|---|-x-|
G |---|---|---|---|-x-|
D |---|---|---|---|-x-|
A |---|---|---|---|---|
E |---|---|-x-|---|---|
Am
Am
e |---|---|---|---|---|
B |-x-|---|---|---|---|
G |---|-x-|---|---|---|
D |---|-x-|---|---|---|
A |---|---|---|---|---|
E |---|---|---|---|---|
and The Old Grey Mare in her stall! F
F
e |-x-|---|---|---|---|
B |-x-|---|---|---|---|
G |---|-x-|---|---|---|
D |---|---|-x-|---|---|
A |---|---|-x-|---|---|
E |-x-|---|---|---|---|
G
G
e |---|---|-x-|---|---|
B |---|---|---|---|---|
G |---|---|---|---|---|
D |---|---|---|---|---|
A |---|-x-|---|---|---|
E |---|---|-x-|---|---|
F
F
e |-x-|---|---|---|---|
B |-x-|---|---|---|---|
G |---|-x-|---|---|---|
D |---|---|-x-|---|---|
A |---|---|-x-|---|---|
E |-x-|---|---|---|---|
G
G
e |---|---|-x-|---|---|
B |---|---|---|---|---|
G |---|---|---|---|---|
D |---|---|---|---|---|
A |---|-x-|---|---|---|
E |---|---|-x-|---|---|
Verse 2: C/G
C/G
e |---|---|---|---|---|
B |---|---|---|---|-x-|
G |---|---|---|---|-x-|
D |---|---|---|---|-x-|
A |---|---|---|---|---|
E |---|---|-x-|---|---|
Am
Am
e |---|---|---|---|---|
B |-x-|---|---|---|---|
G |---|-x-|---|---|---|
D |---|-x-|---|---|---|
A |---|---|---|---|---|
E |---|---|---|---|---|
Endangered Ape, C/G
C/G
e |---|---|---|---|---|
B |---|---|---|---|-x-|
G |---|---|---|---|-x-|
D |---|---|---|---|-x-|
A |---|---|---|---|---|
E |---|---|-x-|---|---|
Am
Am
e |---|---|---|---|---|
B |-x-|---|---|---|---|
G |---|-x-|---|---|---|
D |---|-x-|---|---|---|
A |---|---|---|---|---|
E |---|---|---|---|---|
F
F
e |-x-|---|---|---|---|
B |-x-|---|---|---|---|
G |---|-x-|---|---|---|
D |---|---|-x-|---|---|
A |---|---|-x-|---|---|
E |-x-|---|---|---|---|
G
G
e |---|---|-x-|---|---|
B |---|---|---|---|---|
G |---|---|---|---|---|
D |---|---|---|---|---|
A |---|-x-|---|---|---|
E |---|---|-x-|---|---|
F
F
e |-x-|---|---|---|---|
B |-x-|---|---|---|---|
G |---|-x-|---|---|---|
D |---|---|-x-|---|---|
A |---|---|-x-|---|---|
E |-x-|---|---|---|---|
G
G
e |---|---|-x-|---|---|
B |---|---|---|---|---|
G |---|---|---|---|---|
D |---|---|---|---|---|
A |---|-x-|---|---|---|
E |---|---|-x-|---|---|
a couple years in Solitary never really hurt anyone. C/G
C/G
e |---|---|---|---|---|
B |---|---|---|---|-x-|
G |---|---|---|---|-x-|
D |---|---|---|---|-x-|
A |---|---|---|---|---|
E |---|---|-x-|---|---|
Am
Am
e |---|---|---|---|---|
B |-x-|---|---|---|---|
G |---|-x-|---|---|---|
D |---|-x-|---|---|---|
A |---|---|---|---|---|
E |---|---|---|---|---|
C/G
C/G
e |---|---|---|---|---|
B |---|---|---|---|-x-|
G |---|---|---|---|-x-|
D |---|---|---|---|-x-|
A |---|---|---|---|---|
E |---|---|-x-|---|---|
Am
Am
e |---|---|---|---|---|
B |-x-|---|---|---|---|
G |---|-x-|---|---|---|
D |---|-x-|---|---|---|
A |---|---|---|---|---|
E |---|---|---|---|---|
F
F
e |-x-|---|---|---|---|
B |-x-|---|---|---|---|
G |---|-x-|---|---|---|
D |---|---|-x-|---|---|
A |---|---|-x-|---|---|
E |-x-|---|---|---|---|
Distinguished colleagues, dead music-writers' brides - I apologize. G
G
e |---|---|-x-|---|---|
B |---|---|---|---|---|
G |---|---|---|---|---|
D |---|---|---|---|---|
A |---|-x-|---|---|---|
E |---|---|-x-|---|---|
F
F
e |-x-|---|---|---|---|
B |-x-|---|---|---|---|
G |---|-x-|---|---|---|
D |---|---|-x-|---|---|
A |---|---|-x-|---|---|
E |-x-|---|---|---|---|
G
G
e |---|---|-x-|---|---|
B |---|---|---|---|---|
G |---|---|---|---|---|
D |---|---|---|---|---|
A |---|-x-|---|---|---|
E |---|---|-x-|---|---|
C/G
C/G
e |---|---|---|---|---|
B |---|---|---|---|-x-|
G |---|---|---|---|-x-|
D |---|---|---|---|-x-|
A |---|---|---|---|---|
E |---|---|-x-|---|---|
Am
Am
e |---|---|---|---|---|
B |-x-|---|---|---|---|
G |---|-x-|---|---|---|
D |---|-x-|---|---|---|
A |---|---|---|---|---|
E |---|---|---|---|---|
They were alright. C/G
C/G
e |---|---|---|---|---|
B |---|---|---|---|-x-|
G |---|---|---|---|-x-|
D |---|---|---|---|-x-|
A |---|---|---|---|---|
E |---|---|-x-|---|---|
Am
Am
e |---|---|---|---|---|
B |-x-|---|---|---|---|
G |---|-x-|---|---|---|
D |---|-x-|---|---|---|
A |---|---|---|---|---|
E |---|---|---|---|---|
They were on fire. C/G
C/G
e |---|---|---|---|---|
B |---|---|---|---|-x-|
G |---|---|---|---|-x-|
D |---|---|---|---|-x-|
A |---|---|---|---|---|
E |---|---|-x-|---|---|
Am
Am
e |---|---|---|---|---|
B |-x-|---|---|---|---|
G |---|-x-|---|---|---|
D |---|-x-|---|---|---|
A |---|---|---|---|---|
E |---|---|---|---|---|
C/G
C/G
e |---|---|---|---|---|
B |---|---|---|---|-x-|
G |---|---|---|---|-x-|
D |---|---|---|---|-x-|
A |---|---|---|---|---|
E |---|---|-x-|---|---|
Am
Am
e |---|---|---|---|---|
B |-x-|---|---|---|---|
G |---|-x-|---|---|---|
D |---|-x-|---|---|---|
A |---|---|---|---|---|
E |---|---|---|---|---|
Dm
Dm
e |-x-|---|---|---|---|
B |---|---|-x-|---|---|
G |---|-x-|---|---|---|
D |---|---|---|---|---|
A |---|---|---|---|---|
E |---|---|---|---|---|
They harbored an elementary desire to do good works. I bought 'em all, I bought 'em all! I made donations to The Plague, and The Fall C/G
C/G
e |---|---|---|---|---|
B |---|---|---|---|-x-|
G |---|---|---|---|-x-|
D |---|---|---|---|-x-|
A |---|---|---|---|---|
E |---|---|-x-|---|---|
Am
Am
e |---|---|---|---|---|
B |-x-|---|---|---|---|
G |---|-x-|---|---|---|
D |---|-x-|---|---|---|
A |---|---|---|---|---|
E |---|---|---|---|---|
C/G
C/G
e |---|---|---|---|---|
B |---|---|---|---|-x-|
G |---|---|---|---|-x-|
D |---|---|---|---|-x-|
A |---|---|---|---|---|
E |---|---|-x-|---|---|
Am
Am
e |---|---|---|---|---|
B |-x-|---|---|---|---|
G |---|-x-|---|---|---|
D |---|-x-|---|---|---|
A |---|---|---|---|---|
E |---|---|---|---|---|
and The Old Grey Mare in her stall. F
F
e |-x-|---|---|---|---|
B |-x-|---|---|---|---|
G |---|-x-|---|---|---|
D |---|---|-x-|---|---|
A |---|---|-x-|---|---|
E |-x-|---|---|---|---|
G
G
e |---|---|-x-|---|---|
B |---|---|---|---|---|
G |---|---|---|---|---|
D |---|---|---|---|---|
A |---|-x-|---|---|---|
E |---|---|-x-|---|---|
F
F
e |-x-|---|---|---|---|
B |-x-|---|---|---|---|
G |---|-x-|---|---|---|
D |---|---|-x-|---|---|
A |---|---|-x-|---|---|
E |-x-|---|---|---|---|
G
G
e |---|---|-x-|---|---|
B |---|---|---|---|---|
G |---|---|---|---|---|
D |---|---|---|---|---|
A |---|-x-|---|---|---|
E |---|---|-x-|---|---|
C/G
C/G
e |---|---|---|---|---|
B |---|---|---|---|-x-|
G |---|---|---|---|-x-|
D |---|---|---|---|-x-|
A |---|---|---|---|---|
E |---|---|-x-|---|---|
Am
Am
e |---|---|---|---|---|
B |-x-|---|---|---|---|
G |---|-x-|---|---|---|
D |---|-x-|---|---|---|
A |---|---|---|---|---|
E |---|---|---|---|---|
I don't know, I guess I'm doing alright. C/G
C/G
e |---|---|---|---|---|
B |---|---|---|---|-x-|
G |---|---|---|---|-x-|
D |---|---|---|---|-x-|
A |---|---|---|---|---|
E |---|---|-x-|---|---|
Am
Am
e |---|---|---|---|---|
B |-x-|---|---|---|---|
G |---|-x-|---|---|---|
D |---|-x-|---|---|---|
A |---|---|---|---|---|
E |---|---|---|---|---|
Tabitha takes another stab at becoming light. F
F
e |-x-|---|---|---|---|
B |-x-|---|---|---|---|
G |---|-x-|---|---|---|
D |---|---|-x-|---|---|
A |---|---|-x-|---|---|
E |-x-|---|---|---|---|
G
G
e |---|---|-x-|---|---|
B |---|---|---|---|---|
G |---|---|---|---|---|
D |---|---|---|---|---|
A |---|-x-|---|---|---|
E |---|---|-x-|---|---|
She never wants to go. F
F
e |-x-|---|---|---|---|
B |-x-|---|---|---|---|
G |---|-x-|---|---|---|
D |---|---|-x-|---|---|
A |---|---|-x-|---|---|
E |-x-|---|---|---|---|
G
G
e |---|---|-x-|---|---|
B |---|---|---|---|---|
G |---|---|---|---|---|
D |---|---|---|---|---|
A |---|-x-|---|---|---|
E |---|---|-x-|---|---|
Dm
Dm
e |-x-|---|---|---|---|
B |---|---|-x-|---|---|
G |---|-x-|---|---|---|
D |---|---|---|---|---|
A |---|---|---|---|---|
E |---|---|---|---|---|
Always want to stay illuminated. C/G
C/G
e |---|---|---|---|---|
B |---|---|---|---|-x-|
G |---|---|---|---|-x-|
D |---|---|---|---|-x-|
A |---|---|---|---|---|
E |---|---|-x-|---|---|
Am
Am
e |---|---|---|---|---|
B |-x-|---|---|---|---|
G |---|-x-|---|---|---|
D |---|-x-|---|---|---|
A |---|---|---|---|---|
E |---|---|---|---|---|
Ride towards the dawn, C/G
C/G
e |---|---|---|---|---|
B |---|---|---|---|-x-|
G |---|---|---|---|-x-|
D |---|---|---|---|-x-|
A |---|---|---|---|---|
E |---|---|-x-|---|---|
Am
Am
e |---|---|---|---|---|
B |-x-|---|---|---|---|
G |---|-x-|---|---|---|
D |---|-x-|---|---|---|
A |---|---|---|---|---|
E |---|---|---|---|---|
Quicksilver on the side of nothing. F
F
e |-x-|---|---|---|---|
B |-x-|---|---|---|---|
G |---|-x-|---|---|---|
D |---|---|-x-|---|---|
A |---|---|-x-|---|---|
E |-x-|---|---|---|---|
G
G
e |---|---|-x-|---|---|
B |---|---|---|---|---|
G |---|---|---|---|---|
D |---|---|---|---|---|
A |---|-x-|---|---|---|
E |---|---|-x-|---|---|
Never had a chance. F
F
e |-x-|---|---|---|---|
B |-x-|---|---|---|---|
G |---|-x-|---|---|---|
D |---|---|-x-|---|---|
A |---|---|-x-|---|---|
E |-x-|---|---|---|---|
G
G
e |---|---|-x-|---|---|
B |---|---|---|---|---|
G |---|---|---|---|---|
D |---|---|---|---|---|
A |---|-x-|---|---|---|
E |---|---|-x-|---|---|
Never had to choose F
F
e |-x-|---|---|---|---|
B |-x-|---|---|---|---|
G |---|-x-|---|---|---|
D |---|---|-x-|---|---|
A |---|---|-x-|---|---|
E |-x-|---|---|---|---|
G
G
e |---|---|-x-|---|---|
B |---|---|---|---|---|
G |---|---|---|---|---|
D |---|---|---|---|---|
A |---|-x-|---|---|---|
E |---|---|-x-|---|---|
Your Blood versus Your C/G
C/G
e |---|---|---|---|---|
B |---|---|---|---|-x-|
G |---|---|---|---|-x-|
D |---|---|---|---|-x-|
A |---|---|---|---|---|
E |---|---|-x-|---|---|
Am
Am
e |---|---|---|---|---|
B |-x-|---|---|---|---|
G |---|-x-|---|---|---|
D |---|-x-|---|---|---|
A |---|---|---|---|---|
E |---|---|---|---|---|
Blues. C/G
C/G
e |---|---|---|---|---|
B |---|---|---|---|-x-|
G |---|---|---|---|-x-|
D |---|---|---|---|-x-|
A |---|---|---|---|---|
E |---|---|-x-|---|---|
Am
Am
e |---|---|---|---|---|
B |-x-|---|---|---|---|
G |---|-x-|---|---|---|
D |---|-x-|---|---|---|
A |---|---|---|---|---|
E |---|---|---|---|---|
F
F
e |-x-|---|---|---|---|
B |-x-|---|---|---|---|
G |---|-x-|---|---|---|
D |---|---|-x-|---|---|
A |---|---|-x-|---|---|
E |-x-|---|---|---|---|
G
G
e |---|---|-x-|---|---|
B |---|---|---|---|---|
G |---|---|---|---|---|
D |---|---|---|---|---|
A |---|-x-|---|---|---|
E |---|---|-x-|---|---|
F
F
e |-x-|---|---|---|---|
B |-x-|---|---|---|---|
G |---|-x-|---|---|---|
D |---|---|-x-|---|---|
A |---|---|-x-|---|---|
E |-x-|---|---|---|---|
G
G
e |---|---|-x-|---|---|
B |---|---|---|---|---|
G |---|---|---|---|---|
D |---|---|---|---|---|
A |---|-x-|---|---|---|
E |---|---|-x-|---|---|
C/G
C/G
e |---|---|---|---|---|
B |---|---|---|---|-x-|
G |---|---|---|---|-x-|
D |---|---|---|---|-x-|
A |---|---|---|---|---|
E |---|---|-x-|---|---|
Am
Am
e |---|---|---|---|---|
B |-x-|---|---|---|---|
G |---|-x-|---|---|---|
D |---|-x-|---|---|---|
A |---|---|---|---|---|
E |---|---|---|---|---|
Ride towards the dawn, C/G
C/G
e |---|---|---|---|---|
B |---|---|---|---|-x-|
G |---|---|---|---|-x-|
D |---|---|---|---|-x-|
A |---|---|---|---|---|
E |---|---|-x-|---|---|
Am
Am
e |---|---|---|---|---|
B |-x-|---|---|---|---|
G |---|-x-|---|---|---|
D |---|-x-|---|---|---|
A |---|---|---|---|---|
E |---|---|---|---|---|
Quicksilver on the side of nothing. F
F
e |-x-|---|---|---|---|
B |-x-|---|---|---|---|
G |---|-x-|---|---|---|
D |---|---|-x-|---|---|
A |---|---|-x-|---|---|
E |-x-|---|---|---|---|
G
G
e |---|---|-x-|---|---|
B |---|---|---|---|---|
G |---|---|---|---|---|
D |---|---|---|---|---|
A |---|-x-|---|---|---|
E |---|---|-x-|---|---|
Never had a chance. F
F
e |-x-|---|---|---|---|
B |-x-|---|---|---|---|
G |---|-x-|---|---|---|
D |---|---|-x-|---|---|
A |---|---|-x-|---|---|
E |-x-|---|---|---|---|
G
G
e |---|---|-x-|---|---|
B |---|---|---|---|---|
G |---|---|---|---|---|
D |---|---|---|---|---|
A |---|-x-|---|---|---|
E |---|---|-x-|---|---|
Never had to choose F
F
e |-x-|---|---|---|---|
B |-x-|---|---|---|---|
G |---|-x-|---|---|---|
D |---|---|-x-|---|---|
A |---|---|-x-|---|---|
E |-x-|---|---|---|---|
G
G
e |---|---|-x-|---|---|
B |---|---|---|---|---|
G |---|---|---|---|---|
D |---|---|---|---|---|
A |---|-x-|---|---|---|
E |---|---|-x-|---|---|
Your Blood versus Your C/G
C/G
e |---|---|---|---|---|
B |---|---|---|---|-x-|
G |---|---|---|---|-x-|
D |---|---|---|---|-x-|
A |---|---|---|---|---|
E |---|---|-x-|---|---|
Am
Am
e |---|---|---|---|---|
B |-x-|---|---|---|---|
G |---|-x-|---|---|---|
D |---|-x-|---|---|---|
A |---|---|---|---|---|
E |---|---|---|---|---|
Blues. C/G
C/G
e |---|---|---|---|---|
B |---|---|---|---|-x-|
G |---|---|---|---|-x-|
D |---|---|---|---|-x-|
A |---|---|---|---|---|
E |---|---|-x-|---|---|
Am
Am
e |---|---|---|---|---|
B |-x-|---|---|---|---|
G |---|-x-|---|---|---|
D |---|-x-|---|---|---|
A |---|---|---|---|---|
E |---|---|---|---|---|
F
F
e |-x-|---|---|---|---|
B |-x-|---|---|---|---|
G |---|-x-|---|---|---|
D |---|---|-x-|---|---|
A |---|---|-x-|---|---|
E |-x-|---|---|---|---|
G
G
e |---|---|-x-|---|---|
B |---|---|---|---|---|
G |---|---|---|---|---|
D |---|---|---|---|---|
A |---|-x-|---|---|---|
E |---|---|-x-|---|---|
F
F
e |-x-|---|---|---|---|
B |-x-|---|---|---|---|
G |---|-x-|---|---|---|
D |---|---|-x-|---|---|
A |---|---|-x-|---|---|
E |-x-|---|---|---|---|
G
G
e |---|---|-x-|---|---|
B |---|---|---|---|---|
G |---|---|---|---|---|
D |---|---|---|---|---|
A |---|-x-|---|---|---|
E |---|---|-x-|---|---|
C/G (One stroke)

Added On December 16th, 2013

SHARE

Comments

blog comments powered by Disqus

ADVERTISEMENT