Dethklok Tabs

Briefcase Full Of Guts

5 versions

TAB

            Briefcase Full Of Guts Tab by Dethklok


Tabbed By:Joe Of Death
email:myintestines@yahoo.com

Tuned 2 steps down (C standard)

Riff One:

e-----------------------------------|
b-----------------------------------|
g-----------------------------------|
d-----------------------------------|
a------7-6-----6-7------------------|
e-0-0-0---0-0-0---0-0-0-8-7-5-7-8-7-|
pm* * *   * * *   * * * * * * * * *

Riff One and 1/2:

e-------------------------------------|
b-------------------------------------|
g------9-8-----8-9--------------------|
d------x-x-----x-x------10-9-7-9-10-9-|
a------7-6-----6-7------x--x-x-x-x--x-|
e-0-0-0---0-0-0---0-0-0-8--7-5-7-8--7-|
pm* * *   * * *   * * *

Riff Two:

e-------------------------------|
b-------------------------------|
g-------------------------------|
d-------------------------------|
a--------7-6-5-6--------6-5-4-5-|
e-0-0-8-7--------0-0-7-6--------|
pm* *            * *

Riff Two and 1/2:

e----------------------------------|
b----------------------------------|
g----------9-8-7-8---------8-7-6-7-|
d-----10-9-x-x-x-x-----9-8-x-x-x-x-|
a-----x--x-7-6-5-6-----x-x-6-5-4-5-|
e-0-0-8--7---------0-0-7-6---------|
pm* *              * *

Riff Three:

e-----------------------------------------------------------|
b-----------------------------------------------------------|
g-----------------------------------------------------------|
d-----------------------------------------------------------|
a-7-6-7-6-------6-5-6-5--------5-4-5-4-------4-3-4-3--------|
e--------8-7-6-7-------7-6-5-6--------6-5-4-5-------5-4-3-4-|

Riff Four:

e----------------------------|
b----------------------------|
g----------------------------|
d----------------------------|
a----------------------------|
e-0-0-0--0-0-0--0-0-0--0-0-0-|
pm* * *  * * *  * * *  * * *

that's all it is.    

Added On December 16th, 2013

SHARE

Comments

blog comments powered by Disqus