Dethklok Tabs

Castratikron

2 versions

TAB

            this is once again the great metal band DETHKLOK. contact me at my myspace 
or at my e-mail white_acdc_Freak@yahoo.com

C----------------------------------------------------------|
G----------------------------------------------------------|
D#--------------------------------------------------4---7--|
A#--2-2-2-2-2-2-2-2-2-2-2-2-2-2-2-2-2-2-2-2-2-2-2---4-5-7--|
F---2-2-2-2-2-2-2-2-2-2-2-2-2-2-2-2-2-2-2-2-2-2-2---2-5-5--|
C---0-0-0-0-0-0-0-0-0-0-0-0-0-0-0-0-0-0-0-0-0-0-0-----3----|

this is the main rhythm though out the song and you play it 4 times

------------------------------------------|
------------------------------------------|
---------------------5-4-5--7-6-7--9-8-9--|
-2-2-2-2-2-2-2-2-2---5-4-5--7-6-7--9-8-9--|
-2-2-2-2-2-2-2-2-2---3-2-3--5-4-5--7-6-7--|
-0-0-0-0-0-0-0-0-0------------------------|

after that you play this 3 times

-----------------------------------|
-----------------------------------|
---------------------5-4-5--7-6-7--|
-2-2-2-2-2-2-2-2-2---5-4-5--7-6-7--|  then play once
-2-2-2-2-2-2-2-2-2---3-2-3--5-4-5--|
-0-0-0-0-0-0-0-0-0-----------------|

C----------------------------------------------------------|
G----------------------------------------------------------|
D#--------------------------------------------------4---7--|
A#--2-2-2-2-2-2-2-2-2-2-2-2-2-2-2-2-2-2-2-2-2-2-2---4-5-7--|  play 2 times
F---2-2-2-2-2-2-2-2-2-2-2-2-2-2-2-2-2-2-2-2-2-2-2---2-5-5--|
C---0-0-0-0-0-0-0-0-0-0-0-0-0-0-0-0-0-0-0-0-0-0-0-----3----|

CHORUS

----------------------------------------------------------|
----------------------------------------------------------|
----------------------------------------------------------|
-7-9---12-11--11-12--16-14--14-12--17-16--16--14--12------|
-7-9---12-11--11-12--16-14--14-12--17-16--16--14--12------|
-5-7---10--9---9-10--14-12--12-10--15-14--14--12--10------|     play 2 times

------------------------------------------|
------------------------------------------|
---------------------5-4-5--7-6-7--9-8-9--|
-2-2-2-2-2-2-2-2-2---5-4-5--7-6-7--9-8-9--|
-2-2-2-2-2-2-2-2-2---3-2-3--5-4-5--7-6-7--|
-0-0-0-0-0-0-0-0-0------------------------|     play 3 times

-----------------------------------|
-----------------------------------|
---------------------5-4-5--7-6-7--|
-2-2-2-2-2-2-2-2-2---5-4-5--7-6-7--|  then play once
-2-2-2-2-2-2-2-2-2---3-2-3--5-4-5--|
-0-0-0-0-0-0-0-0-0-----------------|

solo (i aint that good)


C----------------------------------------------------------|
G----------------------------------------------------------|
D#--------------------------------------------------4---7--|
A#--2-2-2-2-2-2-2-2-2-2-2-2-2-2-2-2-2-2-2-2-2-2-2---4-5-7--|  play once
F---2-2-2-2-2-2-2-2-2-2-2-2-2-2-2-2-2-2-2-2-2-2-2---2-5-5--|
C---0-0-0-0-0-0-0-0-0-0-0-0-0-0-0-0-0-0-0-0-0-0-0-----3----|


----------------------------------------------------------|
----------------------------------------------------------|
----------------------------------------------------------|
-7-9---12-11--11-12--16-14--14-12--17-16--16--14--12------|
-7-9---12-11--11-12--16-14--14-12--17-16--16--14--12------|
-5-7---10--9---9-10--14-12--12-10--15-14--14--12--10------|     play 4 times

------------------------------------------|
------------------------------------------|
---------------------5-4-5--7-6-7--9-8-9--|
-2-2-2-2-2-2-2-2-2---5-4-5--7-6-7--9-8-9--|
-2-2-2-2-2-2-2-2-2---3-2-3--5-4-5--7-6-7--|
-0-0-0-0-0-0-0-0-0------------------------|     play 8 times


end of the song    

Added On December 16th, 2013

SHARE

Comments

blog comments powered by Disqus

VERSIONS

ADVERTISEMENT