Dethklok Tabs

Crush My Battle Opponents Balls Intro

2 versions

TAB

            C-----------------------------------------------------------------------------|
F---------13--17----------13--17----------13--17--------13--15----------13-17-|
Bb-14--16----------14--16----------14--16--------14--16----------14--16-------|
Eb----------------------------------------------------------------------------|
G-----------------------------------------------------------------------------|
C-----------------------------------------------------------------------------|

C-----------------------------------------------------------------------------|
F---------13--15----------13--17----------13--15--------13--15----------13-17-|
Bb-14--16----------14--16----------14--16--------14--16----------14--16-------|
Eb----------------------------------------------------------------------------|
G-----------------------------------------------------------------------------|
C-----------------------------------------------------------------------------|    

Added On December 16th, 2013

SHARE

Comments

blog comments powered by Disqus

VERSIONS

ADVERTISEMENT