Dethklok Tabs

Face Fisted

3 versions

TAB

            Tuning is in C (C,F,Bb,D,G,C)

Intro-Intermission Riff
|--------------------|
|--------------------|
|--------------------|
|--------------------|
|--------------------|
|000000000-0001112221| 

Verse
|-------------------------------------|
|-------------------------------------|
|------------------------------------5|
|2---3---2---3--------2---3---2---3--5|
|2---3---2---3--------2---3---2---3--3|
|0-0-1-0-0-0-1-0-2/3--0-0-1-0-0-0-1-0-|

Prechorous (IM SO FUCKIN TUFF IM SO FUCKIN TUFF, THATS RIGHT!)
|---------------|
|---------------|
|---------------|
|---------------|
|------------5-8|
|55555-66666-3-6|
(Prechorous continuation)
|----------------------------------------------------------------------|
|----------------------------------------------------------------------|
|----------------------------------------------------------------------|
|----------------------------------------------------------------------|
|----------------------------------------------------------------------|
|55555-66666-88888-10,10,10,10,10-99999-10,10,10,10,10-12,12,12,12,12--|
|
|---------------|
|---------------|
|---------------|
|---------------|
|---------------|
|-13,13,13,13,13|


|-----------------------------------------------------------|
|-----------------------------------------------------------|
|-----------------------------------------------------------|
|----7----8----10-----------12---11-----------12----------14|
|-----------------------------------------------------------|
|5555-6666-8888--10,10,10,10-9999--10,10,10,10--12,12,12,12-|
|
|--------------|
|--------------|
|--------------|
|-----------15-|
|--------------|
|13,13,13,13---|

Chorus
|----------------------------------------------------|
|----------------------------------------------------|
|----------------------------------------------------|
|----9------10-----5------5----8------10-----5------5|
|----7-8888-8-3333-3-3333-3----7-8888-8-3333-3-3333-3|
|0000----------------------0000----------------------|
 ....  ....   ....   ....  ....  ....   ....   ....

Intermission
|--------------------|
|--------------------|
|--------------------|
|--------------------|
|--------------------|
|000000000-0001112221| 

Verse
|-------------------------------------|
|-------------------------------------|
|------------------------------------5|
|2---3---2---3--------2---3---2---3--5|
|2---3---2---3--------2---3---2---3--3|
|0-0-1-0-0-0-1-0-2/3--0-0-1-0-0-0-1-0-|

Prechorous (IM SO FUCKIN TUFF IM SO FUCKIN TUFF, THATS RIGHT!)
|---------------|
|---------------|
|---------------|
|---------------|
|------------5-8|
|55555-66666-3-6|
(Prechorous continuation)
|----------------------------------------------------------------------|
|----------------------------------------------------------------------|
|----------------------------------------------------------------------|
|----------------------------------------------------------------------|
|----------------------------------------------------------------------|
|55555-66666-88888-10,10,10,10,10-99999-10,10,10,10,10-12,12,12,12,12--|
|
|---------------|
|---------------|
|---------------|
|---------------|
|---------------|
|-13,13,13,13,13|


|-----------------------------------------------------------|
|-----------------------------------------------------------|
|-----------------------------------------------------------|
|----7----8----10-----------12---11-----------12----------14|
|-----------------------------------------------------------|
|5555-6666-8888--10,10,10,10-9999--10,10,10,10--12,12,12,12-|
|
|--------------|
|--------------|
|--------------|
|-----------15-|
|--------------|
|13,13,13,13---|

Chorus
|----------------------------------------------------|
|----------------------------------------------------|
|----------------------------------------------------|
|----9------10-----5------5----8------10-----5------5|
|----7-8888-8-3333-3-3333-3----7-8888-8-3333-3-3333-3|
|0000----------------------0000----------------------|
 ....  ....   ....   ....  ....  ....   ....   ....

Outro
|--------------------|
|--------------------|
|--------------------|
|--------------------|
|--------------------|
|000000000-0001112221|    

Added On December 16th, 2013

SHARE

Comments

blog comments powered by Disqus

VERSIONS

ADVERTISEMENT