Dethklok Tabs

Life Sentance

1 versions

TAB

            -----------------------------------------------------------------------------------------
Life Sentence - Dethklok
From the season 2, episode 7 Dethwedding of the TV show: Metalocalypse
-----------------------------------------------------------------------------------------
Standard C Tuning for all 3 guitars (C,F,Bb,Eb,G,c)

Intro:
   Guitars 1 (trills)
C||-------------------------|
G||-------------------------|
Eb|-------------------------|
Bb|-------------------------|
F||----7#-6#----4#-5#-4#----|
C||-0#-------0#----------3#-|
 ||
 ||Guitar 2
C||-------------------------|
G||-------------------------|
Eb|----------------------0#-|
Bb|-------------------------|
F||----7#-6#----4#-5#-4#----|
C||-0#-------0#-------------|


Played before the main riff kicks in
C||-----------------|
G||-----------------|
Eb|-9-9-9-9-9-9-9-9-|
Bb|-5-5-5-5-5-5-5-5-|
F||-7-7-7-7-7-7-7-7-|
C||-----------------|

Main riff (which is pretty awesome)
C||----------------------|
G||----------------------|
Eb|----------------------|
Bb|-2-2-2---2-2-2---2--2-|x4
F||-2-2-2-1---2-2-1--1---|
C||-0-0-0-----0-0--------|

Bridge
  Guitar 1
C||-----------------------------------------|
G||-----------------------------------------|
Eb|-----------------------------------------|
Bb|-----------------------------------------|x4
F||------1*h2------2*h3------3*h5------5*h6-|
C||-0-0-------0-0-------0-0-------0-0-------|
    * *       * *       * *       * *

Solo 1
   Guitar 2
C||-2-3-5--3-5-7--5-7-8--3-5-7--5-7-8--7-8-10--5-7-8--7-8-10--8-10-12--7-8-10--8-10-12-|
G||------------------------------------------------------------------------------------|
Eb|------------------------------------------------------------------------------------|
Bb|------------------------------------------------------------------------------------|
F||------------------------------------------------------------------------------------|
C||------------------------------------------------------------------------------------|

-10-12-14--8-10-12--10-12-14-14--10-||
------------------------------------||
------------------------------------||
------------------------------------||
------------------------------------||
------------------------------------||

Solo 2
   Guitar 1
C||-14p10------14/15\14p10------14p10-------------14p10------------------14h17p14-----|
G||------12--12-----------12--12-----12---------12-----12--------------15--------15---|
Eb|--------11---------------11---------11-----11---------11----------14------------14-|
Bb|-----------------------------------------12----------------12---16-----------------|
F||---------------------------------------14----------------14--/17-------------------|
C||-----------------------------------------------------------------------------------|
 ||
 ||Guitar 2
C||------------------------------------------------------------------------------------|
G||------------------------------------------------------------------------------------|
Eb|------------------------------------------------------------------------------------|
Bb|------------------------------------------------------------------------------------|
F||------------------------------------------------------------------------------------|
C||------------------------------------------------------------------------------------|


---14h17/19\17p14------14h17/21\17p14-----19-20-22-22b(24)-||
-15--------------15--15--------------15--------------------||
-------------------14------------------14------------------||
-----------------------------------------------------------||
-----------------------------------------------------------||
							      ||
                                                           ||
------------------------------------------12-13-15-15b(17)-||
-----------------------------------------------------------||
-----------------------------------------------------------||
-----------------------------------------------------------||
-----------------------------------------------------------||
-----------------------------------------------------------||

Outro:
C||---------------||
G||---------------||
Eb|---------------||
Bb|-2-2-2-2-2-2-2-||end
F||-2-2-2-2-2-2-2-||
C||-0-0-0-0-0-0-0-||    

Added On December 16th, 2013

SHARE

Comments

blog comments powered by Disqus

ADVERTISEMENT