Dethklok Tabs

Symmetry

1 versions

TAB

            “Symmetry”
Dethklok
Dethalbum II

I got an advance copy of this song offline, and it was pretty easy to figure out so I 
for it. It’s my first so tell me what you think.

The rhythm is easy, just listen to the song.

Tuning: C standard

Intro A x4
c ||-----------------------------------------------------------------|
G ||-----------------------------------------------------------------|
Eb||-----------------------------------------------------------------|
Bb||----------------------------------------------X------------------|
F ||--------2----------2----------2----------5----X------------------|
C ||--0-2-0-3----0-2-0-3----0-2-0-3----0-2-0-3----X------------------|

Intro B x4(Not quite sure about the rhythm guitar under it)
c ||-8--7--5--7--8--7--5--7--8--7--5--7--5--3--2--3------------------|
G ||-----------------------------------------------------------------|
Eb||-----------------------------------------------------------------|
Bb||-----------------------------------------------------------------|
F ||-----------------------------------------------------------------|
C ||-----------------------------------------------------------------|

Verse A
c ||-----------------------------------------------------------------|
G ||-----------------------------------------------------------------|
Eb||-----------------------------------------------------------------|
Bb||-------9\8/9-------------------5----------7----------------------|
F ||-------7\6/7-------------------3----------5----------------------|
C ||-000---------000---3-5-6---0-0-----3--0-0-----5------------------|

Verse B “Walk...Walk” Listen for palm mutes
c ||-----------------------------------------------------------------|
G ||-----------------------------------------------------------------|
Eb||-----------------------------------------------------------------|
Bb||-----------------------------------------------------------------|
F ||-----------------------------------------------------------------|
C ||0-0-0--0-0-0--0-0-0--2h3p2--0-0-0--0-0-0--2h3p2-1h2p1------------|

Verse A x4
Verse B x4

Bridge (?) “I would kill for…etc.) x 4
This part, just listen for that galloping rhythm you always hear in Dethklok, hitting 
first one hard.
c ||-----------------------------------------------------------------|
G ||-----------------------------------------------------------------|
Eb||-----------------------------------------------------------------|
Bb||--1----------3-----------7---------------------------------------|
F ||--3---X12?---5--X12?-----8-X24?----------------------------------|
C ||-----------------------------------------------------------------|


Bridge B  (Again, listen to the song)
c ||-----------------------------------------------------------------|
G ||-----------------------------------------------------------------|
Eb||------------9----------------------------------------------------|
Bb||--9/10\9-7--7--7/9-9-99-9-99-9-99--------------------------------|
F ||--7/8-\7-5-----5/7-7-77-7-77-7-77--------------------------------|
C ||-----------------------------------------------------------------|

c ||-----------------------------------------------------------------|
G ||-----------------------------------------------------------------|
Eb||--------10\9-----------------------------------------------------|
Bb||--9/10\9-8\7--7--------------------------------------------------|
F ||--7/8-\7------5-10-10-10-10--------------------------------------|
C ||-----------------8--8--8-8---------------------------------------|


Intro A x4

Solo is in F Aeolian

c ||---------5----7----8---------------------------------------------|
G ||---------5----6----8---------------------------------------------|
Eb||---------5----7--------------------------------------------------|
Bb||---------5----7----9---------------------------------------------|
F ||---------5----7----8---------------------------------------------|
C ||---------5----7----8---------------------------------------------|

Bridge B x4

Intro A

End

Sorry If I said “Figure it out” Too much, but its not hard, guys     

Added On December 16th, 2013

SHARE

Comments

blog comments powered by Disqus

ADVERTISEMENT