Devendra Banhart Tabs

We All Know

2 versions

TAB

            We All Know Tab by Devendra Banhart


-------------------------------------------------------------------------------
			     we all know - Devendra Bandhart
-------------------------------------------------------------------------------
Tabbed by:nealnealneal
Email:

Tuning: boring old standard

it hops back and forth from a G chord to an Em chord with pretty little fills, like so
e|-------------3---3---3-------------------0--0--0-------------------|
B|-------------0---0---0-------------------0--0--0-------------------|
G|-------------0---0---0-------------------0--0--0-------------------|
D|-------------0---0---0------------0------2--2--2--------0----------|
A|-------------2---2---2-----0h2-----------2--2--2---0h2---(or)------|
E|---------3---3---3---3-------------------0--0--0-----------------3-|
x a bajillion
 he stabs these in ocassionally too
e|------------------------------------------------------------0--------|
B|-------1----1----1----1----1----1----1----1----1------------2--------|
G|------------------------------------------------------------2--------|
D|------------------------------------------------------------2--------|
A|----3----3----3----3----3----3----3----3----3---------------0--------|
E|------------------------------------------------------------0--------|

the dadumdambumpadampdum part is just the first bit without fills...and horns.


| /  slide up
| \  slide down
| h  hammer-on
| p  pull-off
| ~  vibrato
| +  harmonic
| x  your mom
===============================================================================    

Added On December 4th, 2013

SHARE

Comments

blog comments powered by Disqus

VERSIONS

ADVERTISEMENT