Devendra Banhart Tabs

Will Is My Friend

2 versions

TAB

            Will Is My Friend Tab by Devendra Banhart


-----------------------------------------------------------------------------
	 "WILL IS MY FRIEND" - Devendra Banhart (Rejoicing in the hands)
-----------------------------------------------------------------------------
Tabbed by: Candypants
Email: francis_oxley@msn.com
Tuning: acoustic guitar, tuned low to high (EADGBE)

Chords(whole song): C, Gsus4, F 
        3  3      1
        1  1      1
        0  0      2
        2  0      3
        3  2      3
        x  3      1

e|-------------|-----3-3-3-0------3-3-1-0--0h1p0----1--------------------0--|
B|--5----------|-----1-1-1-1~-----0-0-0-0-----------1--1-1-1--1-1-----1--1--|
G|--5----------|------------------------------------2--2-2-2--2-2--1h2---0--|
D|--5----------|--2---------------------------------3--3-3-3--3-3--3-----2--|
A|--3~---------|--3------------2--------------------3--3-3-3--3-3--------3--|
E|-------------|---------------3--------------------1--------------------3--|    

Added On December 4th, 2013

SHARE

Comments

blog comments powered by Disqus

VERSIONS

ADVERTISEMENT