Dewa Tabs

Larut

2 versions

TAB

            Larut Tab by Dewa


 SONG: LARUT
 BAND: DeWa
ALBUM: REPUBLIK-CINTA
MUSIC & LYRIC : Ahmad Dhani


Intro: E

E                                    C#M                A              E
Mungkin aku pernah juga.. Merasakan Cinta.. Tapi tak pernah.. Seindah ini
E                                    C#M                A               E
Mungkin aku juga pernah.. Merasakan RIndu.. Tapi tak pernah.. Sedalam ini

#:
 F#M          G#M      A        G#M                                  
Mungkin kamu takkan pernah.. percaya.. 
 F#M         G#M      A           B
Bahwa sesunguhnya.. aku tlah terjatuh

Reff:
E  C#M     A            E              C#M       A              E
Ku Akui.. Aku.. Telah Larut.. Larut Ke dalam.. Kamu.. Yang Kucintai..


~Solo Guitar~
|---------------------------------------------------------------------|
|---------------------------------------------------------------------|
|------5/7--5-3----5/7--5-3----5/7--5-3--5/7--5-3-2h3p2h3p2h3p2-------|
|--------------------------------------------------------------5^-----|
|---------------------------------------------------------------------|
|---------------------------------------------------------------------|

|--------------------------------------------5^---7/8--8/10--10/12--12/15-|
|------6----8^---6------------------6-8-6---------------------------------|
|--5h7---7---------7--5/7-5-------7-------7-------------------------------|
|-------------------------------------------------------------------------|
|-------------------------------------------------------------------------|
|-------------------------------------------------------------------------|

~Back To Reff 2x~



Enjoy It this iss 99.99% Accurate, I Find it myself and it is very easy.. ^o^    

Added On December 4th, 2013

SHARE

Comments

blog comments powered by Disqus

VERSIONS

ADVERTISEMENT