Dick Dale Tabs

Belo Horizonte

2 versions

TAB

            Belo Horizonte Tab by Dick Dale


-------------------------------------------------------------------------------
			 Belo Horizonte - Dick Dale
-------------------------------------------------------------------------------
Tabbed by: Just_Chaz
Email: murdermug@hotmail.com

Tuning: Standard

(Verse 1)     A              A                E                           A
e|-----------------5-4h5p4-2--------------------0-0-----0-------0-2-0h2p0-0--|
B|--5-5-5-3-2-5~-5-----------2~-2-2h3-2-3-2-3/5-0---------0-2-3-----------2--|
G|--6-6-6-4-2-6~----------------2-2---2-2-2-2/4-1-----1-------------------2--|
D|----------------------------------------------2---2---------------------2--|
A|----------------------------------------------2-------------------------0--|
E|----------------------------------------------0----------------------------|
              A              A                E                           A
e|-----------------5-4h5p4-2--------------------0-0-----0-----------------0--|
B|--5-5-5-3-2-5~-5-----------2~-2-2h3-2-3-2-3/5-0---------0-2-3-2-2h3p2p0-2--|
G|--6-6-6-4-2-6~----------------2-2---2-2-2-2/4-1-----1-------------------2--|
D|----------------------------------------------2---2---------------------2--|
A|----------------------------------------------2-------------------------0--|
E|----------------------------------------------0----------------------------|

(Chorus)       D                   A                        E 
e|--------------------------------------------------------------0-------0--|
B|--10-10-10-9-7~-10-10h12-10-9----10\-/5~--5-5h7-5h7p5-3-2-2h3-0-----0----|
G|--11-11-11-9-7~---------------11----------------------------------1------|
D|----------------------------------------------------------------2--------|
A|-------------------------------------------------------------------------|
E|-------------------------------------------------------------------------|
              A                                          D
e|--------0-2-0-------0-----0~--|---------------------------------|
B|--0-2-3-------2-------2---2~--|--10--10-10-10--10--9-7-10--10~--|
G|----------------2---------2~--|--11--11-11-11--11--9-7-11--11~--|
D|------------------2-----2-----|---------------------------------|
A|------------------------------|---------------------------------|
E|------------------------------|---------------------------------|
                       A                    E                          A
e|-----------------------------------------------------0---------------0~--|
B|--10-12-10h12p10-9\7-10\5~--5-7-5h7p5-3-2-3~-0-----0---0-2-3-2h3p2-0-2~--|
G|-------------------------------------------------1-------------------2~--|
D|-----------------------------------------------2-------------------------|
A|-------------------------------------------------------------------------|
E|-------------------------------------------------------------------------|

(Verse 2)            A                A                    E
e|---9--9--9-7-5--9--9~---9--9--9-7-5------9--9--9-7-5-5/7-7~--|
B|--10-10-10-9-7-10-10~--10-10-10-9-7-5~--10-10-10-9-7-7/9-9~--|
G|------------------------------------6~-----------------------|
D|-------------------------------------------------------------|
A|-------------------------------------------------------------|
E|-------------------------------------------------------------|
                  A
e|--7--9-10--9-7--9---9~--|
B|--9-10-12-10-9-10--10~--| x2
G|------------------------|
D|------------------------|
A|------------------------|
E|------------------------|

(Repeat chorus, then verse 1, then chorus into outro)
Outro
e|---10--10--5--5-4-2-0--0----------0----------5--|
B|---10--10--5-----------2--------2----5-5-3-2-5--|
G|---11--10--6-----------2------2------6-6-4-2-6--|
D|---12--12--7-----------2----2----------------7--|
A|---12--12--7-----------0--0------------------7--|
E|--/10--10--5---------------------------------5--|

| /  slide up
| \  slide down
| h  hammer-on
| p  pull-off
| ~  vibrato
| +  harmonic
| x  Mute note    

Added On December 4th, 2013

SHARE

Comments

blog comments powered by Disqus

VERSIONS

ADVERTISEMENT