Dinosaur Jr Tabs

Budge

1 versions

TAB

            Dinosaur Jr
Budge
from the album Bug (track 7)


Verse (strumming probably isn't perfect, but its all the notes)
-----------------------------------------|
-----------------------------------------|
-4-4-4-4-4-6-6-6-6-6-7-7-7-7-7-7-7-7-7-7-|
-4-4-4-4-4-6-6-6-6-6-7-7-7-7-7-7-7-7-7-7-|
-2-2-2-2-2-4-4-4-4-4-5-5-5-5-5-5-5-5-5-5-|
-----------------------------------------|
repeat as necessary


Chorus
------------------------------------------------------|
------------------------------------------------------|
--------------------------------------7-7-7-7-7-9-9-9-|
-9-9-9-9-9h11-9-9-9-9-9h11-12-11-9h11-0-0-0-0-0-0-0-0-|
-0-0-0-0-0-0--0-0-0-0-0-0--0--0--0-0------------------|
------------------------------------------------------|
play this a few times then,

------------------------------------------------------|
------------------------------------------------------|
--------------------------------------7-7-6-6-4-4-4-4-|
-9-9-9-9-9h11-9-9-9-9-9h11-12-11-9h11-0-0-0-0-0-0-0-0-|
-0-0-0-0-0-0--0-0-0-0-0-0--0--0--0-0------------------|
------------------------------------------------------|
play this once, then go back to verse

Outro
--------------------------------------|
--------------------------------------|
--------------------------------------|
-9-9-9-9-9h11-9-9-9-9-9h11-12-11-9h11-|
-0-0-0-0-0-0--0-0-0-0-0-0--0--0--0-0--|
--------------------------------------|
repeat until the song fades out


Thats it, I thought id tab this out myself since I couldn't find any tabs for it anywhere.
This is my first tab, but I think it sounds fine. Listen to the song for timing. Please 
If you have any questions PM me.    

Added On December 16th, 2013

SHARE

Comments

blog comments powered by Disqus

ADVERTISEMENT