Dir en grey Tabs

Clever Sleazoid

4 versions

TAB

            : : L E A D  G U I T A R  (Kaoru) : :

Intro Riff

||--------------------------------------|
||--------------------------------------|
||----6-6--6-7-6--6-7-6-(x5)------------|
||----6-6--6-7-6--6-7-6-(x5)------------|
||--------------------------------------|
||--------------------------------------|

...................................WAKE UP, YOU'RE DEAD!!! TSHUH!!


Verse

pm=palm mute
||------------------------|
||------------------------|
||------------------------|
||------------------------|
||4pm[5]-4pm[5]-----------|
||4pm[5]-4pm[5]-----------|

||--------------------------------------------------------------------------|
||--------------------------------------------------------------------------|
||--------------------------------------------------------------------------|
||4pm[5]-4pm[5]-4-----4pm[5]-(x2)-4--5-5-4pm-4---------------(x2)-----------|
||4pm[5]-4pm[5]-4-----4pm[5]-(x2)-4--5-5-4pm-4--/8-8-9-9-8-8-(x2)-----------|
||4pm[5]-4pm[5]-4-5-5-4pm[5]-(x2)-4--5-5-4pm-4--/8-8-9-9-8-8-(x2)-----------|

Again:
||--------------------------------------------------------------------------|
||--------------------------------------------------------------------------|
||--------------------------------------------------------------------------|
||4pm[5]-4pm[5]-4-----4pm[5]-(x2)-4--5-5-4pm-4---------------(x2)-----------|
||4pm[5]-4pm[5]-4-----4pm[5]-(x2)-4--5-5-4pm-4--/8-8-9-9-8-8-(x2)-----------|
||4pm[5]-4pm[5]-4-5-5-4pm[5]-(x2)-4--5-5-4pm-4--/8-8-9-9-8-8-(x2)-----------|

Doing meaningless shit over and over
I'm just a third-rated star covered in blood
See the prince on the rocking horse!
His polished face looks so cool!
I'M JUST GONNA SPILL MY
GUTS ON YOU!!!


Chorus

||-----------------------------------------------------------------------|
||-----------------------------------------------------------------------|
||6-6-6-6-6-6-6-6-6-6-6-6-6-6-6-6-------------6pm------------------------|
||6-6-6-6-6-6-6-6-8-8-8-8-8-8-8-8-7--6--7-6-4-6--------------------------|
||-----------------------------------------------------------------------|
||-----------------------------------------------------------------------|

||-------------------------------------------------------------------------|
||-------------------------------------------------------------------------|
||6-6-6-6-6-6-6-6-6-6-6-6-6-6-6-6--------6-5-6-/8-(x2)---------------------|
||6-6-6-6-6-6-6-6-8-8-8-8-8-8-8-8-7--6------------(x2)---------------------|
||-------------------------------------------------------------------------|
||-------------------------------------------------------------------------|

Under the name of justice
You can't break my soul!
Under the name of justice
Kill yourself!
Think, you moron!
Fall out of line, you COCKROACH!!!

||--------------------------------------------------------------------------------------------------|
||----------------------------------4pm[5]--4pm[5]-6pm--6pm-6pm-6pm-4pm[5]--4pm[5]--4pm[5]--4pm[5]--|
||----h2--h2--h2--h2-h2-h2-4pm[5]--4pm[5]-6pm--6pm-6pm-6pm-4pm[5]--4pm[5]--4pm[5]--4pm[5]-----------|
||----h2--h2--h2--h2-h2-h2-4pm[5]--4pm[5]-4pm--4pm-4pm-4pm-4pm[5]--4pm[5]--4pm[5]--4pm[5]-----------|
||----h2--h2--h2--h2-h2-h2--------------------------------------------------------------------------|
||--------------------------------------------------------------------------------------------------|

||------------------------------------------------------------------------------------|
||--4pm[5]-4pm[5]-4pm[5]-6pm--6pm--6pm--6pm-6pm-6pm-----------------------------------|
||--4pm[5]-4pm[5]-4pm[5]-6pm--6pm--6pm--6pm-6pm-6pm-----------------------------------|
||--4pm[5]-4pm[5]-4pm[5]-4pm--4pm--4pm--4pm-4pm-4pm-----------------------------------|
||------------------------------------------------------------------------------------|
||------------------------------------------------------------------------------------|

||----------------------------------------------------------------|
||-------------------------------4pm[5]--4pm[5]-6pm--6pm-6pm-6pm--|
||----h2--h2--h2--h2-h2-h2-4pm[5]--4pm[5]-6pm--6pm-6pm-6pm--------|
||----h2--h2--h2--h2-h2-h2-4pm[5]--4pm[5]-4pm--4pm-4pm-4pm--------|
||----h2--h2--h2--h2-h2-h2----------------------------------------|
||----------------------------------------------------------------|


: : R H Y T H M  G U I T A R  (Die) : :

Intro Riff

||-----------------------------------------|
||-----------------------------------------|
||-----------------------------------------|
||--------4-4--4-5-4--4-5-4-(x4)-----------|
||--------4-4--4-5-4--4-5-4-(x4)-----------|
||--------4-4--4-5-4--4-5-4-(x4)-----------|

.............WAKE UP, YOU'RE DEAD!!! TSHUH!!!


Verse

pm=palm mute
||--------------------|
||--------------------|
||--------------------|
||--------------------|
||4pm-4pm-(x13)-------|
||4pm-4pm-(x13)-------|

Repeat riff x8....

Doing meaningless shit over and over
I'm just a third-rated star covered in blood
See the prince on the rocking horse!
His polished face looks so cool!
I'M JUST GONNA SPILL MY
GUTS ON YOU!!!


Chorus

||-----------------------------------------------------------------|
||-----------------------------------------------------------------|
||6-6-6-6-6-6-6-6-6-6-6-6-6-6-6-6-(x6)-----------------------------|
||6-6-6-6-6-6-6-6-8-8-8-8-8-8-8-8-(x6)-----------------------------|
||-----------------------------------------------------------------|
||-----------------------------------------------------------------|

Under the name of justice
You can't break my soul!
Under the name of justice
Kill yourself!
Think, you moron!
Fall out of line, you COCKROACH!!!

Repeat Intro Riff
Repeat Verse Riff x8
Repeat Chorus Riff    

Added On December 16th, 2013

SHARE

Comments

blog comments powered by Disqus

VERSIONS

ADVERTISEMENT