Disciple Tabs

By God

2 versions

TAB

            By God Tab by Disciple


They are tuned to drop C#

		Intro
Ed |--------------------------------------|
Bd |--------------------------------------|
F# |--------------------------------------|
C# |--------------------------------------|
G# |-123-234-345-456-567-678-789----------|
C# |-123-234-345-456-567-678-789----------|


	This is played through out the song
Ed |----------------------------------------------------|
Bd |----------------------------------------------------|
F# |----------------------------------------------------|
C# |-0-0-0-0-0-0-0-0---0-0---0-0-0-0-0-0-0-0------------|
G# |-0-0-0-0-0-0-0-0---0-0---0-0-0-0-0-0-0-0---4^v^-----|
C# |-0-0-0-0-0-0-0-0---0-0---0-0-0-0-0-0-0-0------------|


	Then you have this in there
Ed |------------------------------------------------|
Bd |------------------------------------------------|
F# |------------------------------------------------|
C# |-6\(0)-00-00---6\(0)-00-------------------------|
G# |-6\(0)-00-00---6\(0)-00-------------------------|
C# |-6\(0)-00-00---6\(0)-00-------------------------|


This follows that x3.75 it sounds like he slides up in there
just like a 2nd natural reflex for him to do or somethin'

Ed |--------------------------------------------------|
Bd |--------------------------------------------------|
F# |--------------------------------------------------|
C# |-4--0-0-0-0--4-4---4~4----------------------------|
G# |-4--0-0-0-0--4-4----------------------------------|
C# |-4--0-0-0-0--4-4----------------------------------|


Now this cool part, the second time through you end with
the "9 3" deal there instead of "0h2 0"

Ed |-------------------------------------|--------|-------|
Bd |-------------------------------------|--------|-------|
F# |-------------------------------------|--------|-------|
C# |-0h2-2-2h5p2-0h2-2-2h5p2-0h2-2-2h5p2-|-0h2-0--|--9--3-|
G# |-0h2-2-2h5p2-0h2-2-2h5p2-0h2-2-2h5p2-|-0h2-0--|--9--3-|
C# |-0h2-2-2h5p2-0h2-2-2h5p2-0h2-2-2h5p2-|-0h2-0--|--9--3-|


Listen to the way he strums
Ed |-----------------------------------------------|----------|
Bd |-----------------------------------------------|--3^------|
F# |-----------------------------------------------|----------|
C# |-0-0-xx-0-0-xx-0-0-xx----------5p(0)-------0---|----------|
G# |-0-0-xx-0-0-xx-0-0-xx-----4/5---------4h5------|----------|
C# |-0-0-xx-0-0-xx-0-0-xx--------------------------|----------|


This is in there toward the end

Ed |----------------------------------------------------------|
Bd |----------------------------------------------------------|
F# |----------------------------------------------------------|
C# |-0-0-xx-0-0-xx0h3-----------------------------------------|
G# |-0-0-xx-0-0-xx0h3-----------------------------------------|
C# |-0-0-xx-0-0-xx0h3-----------------------------------------|

Now use the riff that goes here and here are the diff with the
little tail of each one

Ed |--------------------|-----------------------|
Bd |----"Old-ONE---4x"--|--------"New-ONE---4x"-|
F# |--------------------|-----------(0)---------|
C# |-----5p(0)------0---|------------0----------|
G# |-4/5-------4h5------|--4h5p4p0--------------|
C# |--------------------|----------5------------|    

Added On December 4th, 2013

SHARE

Comments

blog comments powered by Disqus

VERSIONS

ADVERTISEMENT