Distillers Tabs

Coral Fang

1 versions

TAB

            Coral Fang Tab by Distillers


-----------------------------------------------------------------------------
			     CORAL FANG - Distillers
-----------------------------------------------------------------------------
Tabbed by:drainyou91
Email:b_dizzle_yizzle@yahoo.com

Tuning:Standard

Verse
e|-------------------------------------------------------------------------|
B|-------------------------------------------------------------------------|
G|10-10-10-10-10-10-10-10--7-7-7-7-7-7-7-7---------------------------------|
D|10-10-10-10-10-10-10-10--7-7-7-7-7-7-7-7--7-7-7-7-7-7-7-7-7-7-7-7-7-7-7-7|
A|-8--8--8--8--8--8--8--8--5-5-5-5-5-5-5-5--7-7-7-7-7-7-7-7-7-7-7-7-7-7-7-7|
E|------------------------------------------5-5-5-5-5-5-5-5-5-5-5-5-5-5-5-5|

  Chorus
e|-------------------------------------------------------------------------|
B|-------------------------------------------------------------------------|
G|9-9-9-9-9-9-9-9----------------------------------------------------------|
D|9-9-9-9-9-9-9-9--7-7-7-7-7-7-7-7--6-6-6-6-6-6-6-6--7-7-7-7-7-7-7-7-------|
A|7-7-7-7-7-7-7-7--7-7-7-7-7-7-7-7--6-6-6-6-6-6-6-6--7-7-7-7-7-7-7-7-------|
E|-----------------5-5-5-5-5-5-5-5--4-4-4-4-4-4-4-4--5-5-5-5-5-5-5-5-------|

  Last Chord
e|-------------------------------------------------------------------------|
B|-------------------------------------------------------------------------|
G|-9-----------------------------------------------------------------------|
D|-9-----------------------------------------------------------------------|
A|-7-----------------------------------------------------------------------|
E|-------------------------------------------------------------------------|
  let ring



| /  slide up
| \  slide down
| h  hammer-on
| p  pull-off
| ~  vibrato
| +  harmonic
| x  Mute note
=============================================================================    

Added On December 4th, 2013

SHARE

Comments

blog comments powered by Disqus

ADVERTISEMENT