Distillers Tabs

Gypsy Rose Lee

2 versions

TAB

            Gypsy Rose Lee Tab by Distillers


GYPSY ROSE LEE - The Distillers
-------------------------------------------------------------------------------

Intro: D G B A

   D             G          B           A
e|--2--|     e|--2--|    e|--0--|   e|--0--|
B|--3--|     B|--2--|    B|--0--|   B|--2--|
G|--2--|     G|--0--|    G|--4--|   G|--2--|
D|-----|     D|--0--|    D|--4--|   D|--2--|
A|-----|     A|--2--|    A|--2--|   A|--0--|
E|-----|     E|--3--|    E|-----|   E|--0--|

Verse & Chorus: D G B A

    D   G   B
e|--------------------|
B|--------------------|
G|--7-----------------|
D|--7---5---9---7-----|
A|--5---5---9---7-----|
E|------3---7---5-----|


"Break it down..."

e|---------------|
B|---------------|
G|-----7---------|
D|--7--7--5--7---|
A|--7--5--5--7---|
E|--5-----3--5---|    

Added On December 4th, 2013

SHARE

Comments

blog comments powered by Disqus

VERSIONS

ADVERTISEMENT