Disturbed Tabs

Forsaken

4 versions

TAB

            Forsaken Tab by Disturbed


Band- Disturbed
Song- Forsaken
Album- Queen Of The Damned Soundtrack
Tuning- Standard Tuning

Okay, this is the first time somebody is going to tab Forsaken on UG. This song is
standard tuning, but in the chorus, he bars the G, B, and E strings(Smallest strings).

Intro
|-------------------------------------------------------9-8-|
|-------------------------------------------------------9-8-|
|-------------------------------------------------------9-8-|
|-----------------------------------------------------------|
|-----------------------------------------------------------|
|-3-3--3-3--3---5-5--5-5--5---7-7--7-7--7---9-9--9-9--9-----|

Chorus
|-3---3---4--4---3---3---3-2---3-|
|-3---3---4--4---3---3---3-2---3-|
|-3---3---4--4---3---3---3-2---3-|
|--------------------------------|
|--------------------------------|
|--------------------------------|

These are the only two parts in the whole song. The verse to the song is the intro.ENJOY!!!!!!    

Added On December 4th, 2013

SHARE

Comments

blog comments powered by Disqus

VERSIONS

ADVERTISEMENT