Dj Krush Tabs

Transition

1 versions

TAB

            -------------------------------------------------------------------------------
                             Transition - DJ Krush
-------------------------------------------------------------------------------
Tabbed by:dannav147
E-mail: bartonfink43@gmail.com

Tuning: Standard

Just two easy riffs to play along.

riff 1

e|----------------------------------------------------|
B|--2-2-2--------------------2-2----------------------|
G|---------4--4---------2--2-----4--4--------2--2-----|
D|---------------4-4-4-----------------4-4-4----------|
A|----------------------------------------------------|

riff 2 

e|---------------------------------------------------------------------------|
B|-----4-4--5--6-6---5--5---5-4-4--------------------------------------------|
G|---------------------------------------------------------------------------|
D|---------------------------------------------------------------------------|
A|---------------------------------------------------------------------------|
E|---------------------------------------------------------------------------|    

Added On December 16th, 2013

SHARE

Comments

blog comments powered by Disqus

ADVERTISEMENT