Don Mclean Tabs

Winter Has Me

1 versions

TAB

            Winter Has Me Chords by Don Mclean

#----------------------------------PLEASE NOTE---------------------------------#
#This file is the author's own work and represents their interpretation of the #
#song. You may only use this file for private study, scholarship, or research. #
#------------------------------------------------------------------------------##
From: "Ronald Staats" 
Date:          Tue, 21 Nov 1995 15:57:55 MET-1
Subject:       crd:winter has me in it's grip - don mclean

 I only know this song  from the SOLO-album. But it comes from the album
Homeless (1974).
 The song starts with flageolets on
  the twelfth and seventh fret. I'd guess the song is easy to play
  when you heard it on the record. The musical intermezzo are
  just the chords in the refrain until the Em. But i guess you'll
  find that out. Just before he plays Winter has me etc. there's a
  little solo which is played this way:
  ----------------3---3---2------|
  ---------------0-0-0---3-------|
  -------0------0---0---2--------|
  --0-0h2------------------------|
  ---------------------2---------|
  -----------3-------------------|
             winter has me etc.

In fact i have to admit this song is worked out by an old
schoolfriend: henny fonville. I haven't seen him for more than 10
years, but maybe some day he finds his way to OLGA too.

  Well good luck playing it,

  ronald staats
  r.staats@dit.azu.nl


Winter has me in it's grip - Don Mclean

G
G
e |---|---|-x-|---|---|
B |---|---|---|---|---|
G |---|---|---|---|---|
D |---|---|---|---|---|
A |---|-x-|---|---|---|
E |---|---|-x-|---|---|
D
D
e |---|-x-|---|---|---|
B |---|---|-x-|---|---|
G |---|-x-|---|---|---|
D |---|---|---|---|---|
A |---|---|---|---|---|
E |---|---|---|---|---|
(B-bass) Winter has me in it's grip Am
Am
e |---|---|---|---|---|
B |-x-|---|---|---|---|
G |---|-x-|---|---|---|
D |---|-x-|---|---|---|
A |---|---|---|---|---|
E |---|---|---|---|---|
D7
D7
e |---|-x-|---|---|---|
B |-x-|---|---|---|---|
G |---|-x-|---|---|---|
D |---|---|---|---|---|
A |---|---|---|---|---|
E |---|---|---|---|---|
think i'll take a summer trip Am
Am
e |---|---|---|---|---|
B |-x-|---|---|---|---|
G |---|-x-|---|---|---|
D |---|-x-|---|---|---|
A |---|---|---|---|---|
E |---|---|---|---|---|
D7
D7
e |---|-x-|---|---|---|
B |-x-|---|---|---|---|
G |---|-x-|---|---|---|
D |---|---|---|---|---|
A |---|---|---|---|---|
E |---|---|---|---|---|
on a sunny sailing ship Em
Em
e |---|---|---|---|---|
B |---|---|---|---|---|
G |---|---|---|---|---|
D |---|-x-|---|---|---|
A |---|-x-|---|---|---|
E |---|---|---|---|---|
D7
D7
e |---|-x-|---|---|---|
B |-x-|---|---|---|---|
G |---|-x-|---|---|---|
D |---|---|---|---|---|
A |---|---|---|---|---|
E |---|---|---|---|---|
where the shells lie in the sand musical intermezzo G
G
e |---|---|-x-|---|---|
B |---|---|---|---|---|
G |---|---|---|---|---|
D |---|---|---|---|---|
A |---|-x-|---|---|---|
E |---|---|-x-|---|---|
D
D
e |---|-x-|---|---|---|
B |---|---|-x-|---|---|
G |---|-x-|---|---|---|
D |---|---|---|---|---|
A |---|---|---|---|---|
E |---|---|---|---|---|
(B-bass) I feel so lonely Am
Am
e |---|---|---|---|---|
B |-x-|---|---|---|---|
G |---|-x-|---|---|---|
D |---|-x-|---|---|---|
A |---|---|---|---|---|
E |---|---|---|---|---|
D7
D7
e |---|-x-|---|---|---|
B |-x-|---|---|---|---|
G |---|-x-|---|---|---|
D |---|---|---|---|---|
A |---|---|---|---|---|
E |---|---|---|---|---|
I'm to young to feel this old G
G
e |---|---|-x-|---|---|
B |---|---|---|---|---|
G |---|---|---|---|---|
D |---|---|---|---|---|
A |---|-x-|---|---|---|
E |---|---|-x-|---|---|
D
D
e |---|-x-|---|---|---|
B |---|---|-x-|---|---|
G |---|-x-|---|---|---|
D |---|---|---|---|---|
A |---|---|---|---|---|
E |---|---|---|---|---|
(B-bass) I need you and you only Am
Am
e |---|---|---|---|---|
B |-x-|---|---|---|---|
G |---|-x-|---|---|---|
D |---|-x-|---|---|---|
A |---|---|---|---|---|
E |---|---|---|---|---|
D7
D7
e |---|-x-|---|---|---|
B |-x-|---|---|---|---|
G |---|-x-|---|---|---|
D |---|---|---|---|---|
A |---|---|---|---|---|
E |---|---|---|---|---|
when the weather gets this cold Winter has me in it's etc. There's no use in going cause it's cold inside my heart and it's always snowing since the day we broke apart Winter has me in it's etc. I tried to run from winter like this spring and summer run to fall But when the weather 's in you ther's no hiding place at all, thats why Winter has me in it's grip etc.

Added On December 4th, 2013

SHARE

Comments

blog comments powered by Disqus

ADVERTISEMENT