Don Williams Tabs

I Believe In You Intro

3 versions

TAB

            I Believe In You Tab by Don Williams


I Believe in You (Intro)
Recorded by Don Williams
Submitted by MightyPawn

The other intro tabs to this song are sadly lacking....
Here is the entire guitar intro, obviously missing the bass part


E------------------------|---------------------------|
B------------------------|---------------------------|
G-----------2----0-------|------------0-2----4----4--|
D-------0-2--------------|--------0-2----------------|
A----0H2-----------3-----|---------------------------|
E---3--------------------|---------------------------|


E---14--14--14--12--12--12-|---10--10--10-8-8-8-8---6H7-3---|
B--------------------------|--------------------------------|
G-14--14--14--12--12--12---|-11--11--11--9-9-9--------------|
D--------------------------|--------------------------------|
A--------------------------|--------------------------------|
E--------------------------|--------------------------------|


You can fake the bass line by repeating
something like this.
E-------------------|--------------------|
B-------------------|--------------------|
G-------------------|--------------------|
D-------------------|--------------------|
A---3----3-0-----3--|--3----3-0-----3----|
E---------3---3-----|--------3---3-------|

The other little riffs they throw in are just variant in G
If you listen to the recording, you'll get it.    

Added On December 4th, 2013

SHARE

Comments

blog comments powered by Disqus

VERSIONS

ADVERTISEMENT