Donavon Frankenreiter Tabs

Butterfly

1 versions

TAB

            Butterfly Tab by Donavon Frankenreiter


donovan - butterfly
tabbed by:zane heemi
email:justa_fortunate_fool@hotmial.com

sorry if its crap this is my first tab

Tuning:
intro
e|---------------------------------------------------------------|
B|-----8------8----8-----3-----3---------------------------------|
G|-7-7---7-7---6-6---5-5---5-5---5-------------------------------|
D|-0-------------------------------------------------------------|
A|-------------------0-------0-----------------------------------|
E|-------7-----6-------------------------------------------------|

e|---------------------------------------------------------------|
B|-0-0--1-1--3-3--1-1--------------------------------------------|
G|-0-0--0-0--2-2--0-0--through out song--------------------------|
D|-0-0--2-2--4-4--2-2--------------------------------------------|
A|------0-0--2-2--0-0--------------------------------------------|
E|-3-3-----------------------------------------------------------|

lyrics: 
verse:
if the road i travel goes bad
if the life i live becomes the life i had
i'd close my eyes and id dream
of my butterfly comin down to rescue me 

chorus:
shes my butterfly yeah shes my butterfly
said shes my butterfly yeah shes my butterfly

verse:
if the wind that guides you pulls you away
if the love that guides you ever asks you to stay
id still close my eyes and id dream
of my butterfly comin down to rescue me

chorus:
shes my butterfly yeah shes my butterfly
said shes my butterfly, butterfly, butterfly
i said shes my butterfly, shes my butterfly
butterfly    

Added On December 4th, 2013

SHARE

Comments

blog comments powered by Disqus

ADVERTISEMENT