Donovan Tabs

Season Of The Witch

1 versions

TAB

            Donovan
Season of the Witch

I heard this song and  found only the bass tab, so here goes..

the two chords repeated throughout the song are not
always played in full. listen and get the feel for it.

  A7     D9
e|-0-----2---|
B|-2-----0---|
G|-0-----2---|
D|-2-----0---|
A|-0-----0---|
E|-x-----2---|

The first guitar you hear in the song, mostly clean
electric, plays the lower notes of each
chord. use palm muting liberally

e|-------------------------------------|
B|-------------------------------------|
G|----2-x-----x-2----------------------|
D|----2-x-----x-x-------x------0-x-----|
A|-0~~------0-----------x------0-x-----|
E|------------------2~~~-----2---------|

the little riff that accompanies the chords goes like
so:

e|--------------------|
B|--3p1p0h1-3/5-------|
G|---------------2~~--|
D|--------------------|
A|--------------------|
E|--------------------|

thats all for now    

Added On December 16th, 2013

SHARE

Comments

blog comments powered by Disqus

ADVERTISEMENT