Donovan Tabs

Sunny Goodge Street

1 versions

TAB

            Donovan
Sunny Goodge Street

This is not the studio but the acoustic version. Donovan sitting outside in the green 
a river. Mother nature's son ;) Can be seen at youtube.

Capo 1st fret

Intro

eI----------0---------------------------0-------------------------------|
BI-------1-3----------3-1-0----------1-3----------3-1-0--------0-1-3----|
GI-----0-------------0-------------2------------0------------2----------|
DI---2-------------0-------------2------------0------------0------------|
AI-3-------------2-------------0----------------------------------------|
EI-------------------------------------------3------------2-------------|


                                                       (getting slower)  On the
--------------------------0---------------------------------------------|I
------0-1-3----------1-3---------3-1-0------0-1-3--------0-1-3----------|I
----2--------------2------------0----------2------ -----2---------------|I
---0--------------2------------0----------0------------0----------------|I
---------------0--------------------------------------------------------|I
-1----------------------------3----------2------------1-----------------|I

Part 1 Verse:

    firefly       platform on sunny Goodge Street    Violent hash
eI---------------------------------------------------------------|
BI-------1-----------1-----------1-----------1-----------1-------|
GI------0--0--------0--0--------2--2--------0--0--------2--2-----|
DI----2------2----0------0----2------2----2-----2-----0------0---|
AI--3------------2-----------0-----------------------------------|
EI---------------------------------------3----------2------------|

 smoker shook a chocolate   machine     Bobbed in an eating scene
---------------------------------------------------------------------|I
-----1-------------1-----------1-----------1------------1------------|I
----2--2----------2--2--------0--0--------2--2---------2--2----------|I
--0-------0-----2------2-----2-----2----0------0-----0-----0---------|I
--------------0------------------------------------------------------|I
-1-------------------------3-----------2-----------1-----------------|I

Part 2 Verse:


   Smashing into neon        streets in their  stillness  Smearing their
eI-------------------------------------------------------------------|
BI-------1-----------1-----------1---------------1-----------1-------|
GI------0--0--------0--0--------2--2------------0--0--------2--2-----|
DI----2------2----0------0----2------2---------2-----2-----0-----0---|
AI--3------------2-----------0---------------------------------------|
EI--------------------------------------------3----------2-----------|

 eyes on the  crazy   Kali goddess     Listenin' to sounds         of
--------------------------------------------------------------------|
-----1-------------1-----------1-----------1------------1-----------|
----2--2----------2--2--------0--0--------2--2---------2--2---------|
--0-------0-----2------2-----2-----2----0------0-----0-----0--------|
--------------0-----------------------------------------------------|
-1-------------------------3-----------2-----------1----------------|

                                                  Chorus:

    Mingus       mellow      fantastic.                          "My,
eI-------------------------------------------------------------------|
BI-------1-----------1-----------1---------------1-----------1-------|
GI------0--0--------0--0--------2--2------------0--0--------2--2-----|
DI----2------2----0------0----2------2---------2-----2-----0-----0---|
AI--3------------2-----------0---------------------------------------|
EI--------------------------------------------3----------2-----------|

 my"      they sigh,                          "My, my"      they sigh.
--------------------------------------------------------------------|
-----1-------------1-----------1-----------1------------1-----------|
----2--2----------2--2--------0--0--------2--2---------2--2---------|
--0-------0-----2------2-----2-----2----0------0-----0-----0--------|
--------------0-----------------------------------------------------|
-1-------------------------3-----------2-----------1----------------|

----------------------------------------------------|I
-------1-----------1-----------1--------1-----------|I
-----2--2--------0--0--------2--2-------2-----------|I
---2------2-----2-----2----0------0-----0-----------|I
-0--------------------------------------------------|I
--------------3-----------2-----------1-------------|I

Repeat Part 2 Verse and Chorus with the lyrics( You need to play chorus 2x)

In dull house rooms with coloured lights swingin'
Strange music boxes sadly tinklin'
Drink in the sun shining all around you.
"My, my", they sigh,
"My, my", they sigh, mm mm.
"My, my", they sigh,
"My, my", they sigh.
The magician, he sparkles in satin and velvet,
You gaze at his splendour with eyes you've not used yet.
I tell you his name is Love, Love, Love.
"My, my", they sigh,
"My, my", they sigh.
"My, my" - sigh.    

Added On December 16th, 2013

SHARE

Comments

blog comments powered by Disqus

ADVERTISEMENT